Song name
# A B C D E F G H I J K L M N O P Q R S T U V W X Y Z

Bring Me The Horizon - Suicide Season tab

Suicide Season by Bring Me The Horizon
I tabbed this in D A D G B E tuning
It may not be perfect but i think its damn close.

Key:
= let ring
\ slide
x mute

Gt. 1
|---------------------------------------------------------------------------------|
|---------------------------------------------------------------------------------|
|---------------------------------------------------------------------------------|
|---10----------6---------3-------------------------------------------------------|
|---10--(x32)---6--(x16)--3--(x16)------------------------------------------------|
|---10----------6---------3-------------------------------------------------------|
Gt. 2
|--------------------------------------------------------------------------------|
|--------------------------------------------------------------------------------|
|--------------------------------------------------------------------------------|
|---10-------------------3-------------------------------------------------------|
|---10--(x48)------------3--(x16)------------------------------------------------|
|---10-------------------3-------------------------------------------------------|

                 (X2)

Vocals Enter

1. We stare at broken clocks, their hands don't turn anymore. The ays turn into night,
hearts and empty places.

2. The day you lost him I slowly lost you too, for when he died he took a part of YOU!

Gt. 1
|---------------------------------------------------------------------------------|
|---------------------------------------------------------------------------------|
|---------------------------------------------------------------------------------|
|---10----------6---------3-------------------------------------------------------|
|---10--(x32)---6--(x16)--3--(x16)------------------------------------------------|
|---10----------6---------3-------------------------------------------------------|
Gt. 2
|--------------------------------------------------------------------------------|
|--------------------------------------------------------------------------------|
|--------------------------------------------------------------------------------|
|---10-------------------3-------------------------------------------------------|
|---10--(x48)------------3--(x16)------------------------------------------------|
|---10-------------------3-------------------------------------------------------|

                 (X2)

Drums Enter
[ YOU! ]
Gt. 1
|---------------------------------------------------------------------------------|
|---------------------------------------------------------------------------------|
|---------------------------------------------------------------------------------|
|---10----------6---------3-------------------------------------------------------|
|---10--(x32)---6--(x16)--3--(x16)------------------------------------------------|
|---10----------6---------3-------------------------------------------------------|
Gt. 2
|--------------------------------------------------------------------------------|
|--------------------------------------------------------------------------------|
|--------------------------------------------------------------------------------|
|---10-------------------3-------------------------------------------------------|
|---10--(x48)------------3--(x16)------------------------------------------------|
|---10-------------------3-------------------------------------------------------|

\\\

Gt. 1
|---------------------------------------------------------------------------------|
|---------------------------------------------------------------------------------|
|---------------------------------------------------------------------------------|
|---10----------6---------3-------------------------------------------------------|
|---10--(x32)---6--(x16)--3--(x16)------------------------------------------------|
|---10----------6---------3-------------------------------------------------------|

Gt. 2
|---------------------------------------------------------------------------------------|
|---------------------------------------------------------------------------------------|
|---------------------------------------------------------------------------------------|
|---10-------------------3--------------------------------------------------------------|
|---10--(x48)------------3--(x16)----[don't let last ring]------------------------------|
|---10-------------------3--------------------------------------------------------------|


\\\
INTERLUDE

No time for farewells. No chances for goodbyes. No explanations. No fucking reasons why.
I watched it eat you up, pieces fallen on the floor, we stare at broken clocks, their
don't turn anymore.

\\\

If sorrow could build a staircase,
                           or tears could show

Gt. 1  [Tremolo]
|----------------------------------------------------------------------------|
|----------------------------------------------------------------------------|
|----------------------------------------------------------------------------|
|----------------------------------------------------------------------------|
|--13131313131313131212121213131313131313131212121213131313121212121010101010 |
|----------------------------------------------------------------------------|

Gt. 2
|----------------------------------------------------------------------------|
|----------------------------------------------------------------------------|
|----------------------------------------------------------------------------|
|--6-6-6-6-6-6-6-6-6-6-6-6-6-6-6-6-6-6-6-6-6-6-6-6-6-6-6-6-6-6-6-6-8-8-8-8-8-|
|--6-6-6-6-6-6-6-6-6-6-6-6-6-6-6-6-6-6-6-6-6-6-6-6-6-6-6-6-6-6-6-6-8-8-8-8-8-|
|--6-6-6-6-6-6-6-6-6-6-6-6-6-6-6-6-6-6-6-6-6-6-6-6-6-6-6-6-6-6-6-6-8-8-8-8-8-|

                                      the way,

Gt. 1 [Tremolo]
|-------------------------|
|-------------------------|
|-------------------------|
|-------------------------|
|--1010101010101010101010-|
|-------------------------|

Gt. 2
|-------------------------|
|-------------------------|
|-------------------------|
|--8-8-8-8-8-8-8-8-8-8-8--|
|--8-8-8-8-8-8-8-8-8-8-8--|
|--8-8-8-8-8-8-8-8-8-8-8--|


I'd climb my way to heaven and bring him back home again.

Gt. 1 [Tremolo]
|----------------------------------------------------------------------------|
|----------------------------------------------------------------------------|
|----------------------------------------------------------------------------|
|----------------------------------------------------------------------------|
|--13131313131313131212121213131313131313131212121213131313121212121010101010 |
|----------------------------------------------------------------------------|

Gt. 2
|----------------------------------------------------------------------------|
|----------------------------------------------------------------------------|
|----------------------------------------------------------------------------|
|--5-5-5-5-5-5-5-5-5-5-5-5-5-5-5-5-5-5-5-5-5-5-5-5-5-5-5-5-5-5-5-5-5-5-5-5-5-|
|--5-5-5-5-5-5-5-5-5-5-5-5-5-5-5-5-5-5-5-5-5-5-5-5-5-5-5-5-5-5-5-5-5-5-5-5-5-|
|--5-5-5-5-5-5-5-5-5-5-5-5-5-5-5-5-5-5-5-5-5-5-5-5-5-5-5-5-5-5-5-5-5-5-5-5-5-|


Gt. 1 [Tremolo]
|-------------------------|
|-------------------------|
|-------------------------|
|--------1212121212121212-|
|--101010-----------------|
|-------------------------|

Gt.2
|-------------------------|
|-------------------------|
|-------------------------|
|--5-5-5-5-5-5-5-5-5-5-5--|
|--5-5-5-5-5-5-5-5-5-5-5--|
|--5-5-5-5-5-5-5-5-5-5-5--|

Don't give up on your friends,
                             this is not the end.

Gt. 1
|----------------------------------------------------------------------------|
|----------------------------------------------------------------------------|
|----------------------------------------------------------------------------|
|----------------------------------------------------------------------------|
|--13131313131313131212121213131313131313131212121213131313121212121010101010 |
|----------------------------------------------------------------------------|


Gt. 2
|----------------------------------------------------------------------------|
|----------------------------------------------------------------------------|
|----------------------------------------------------------------------------|
|--6-6-6-6-6-6-6-6-6-6-6-6-6-6-6-6-6-6-6-6-6-6-6-6-6-6-6-6-6-6-6-6-8-8-8-8-8-|
|--6-6-6-6-6-6-6-6-6-6-6-6-6-6-6-6-6-6-6-6-6-6-6-6-6-6-6-6-6-6-6-6-8-8-8-8-8-|
|--6-6-6-6-6-6-6-6-6-6-6-6-6-6-6-6-6-6-6-6-6-6-6-6-6-6-6-6-6-6-6-6-8-8-8-8-8-|


Gt. 1
|---------------------------|
|---------------------------|
|---------------------------|
|---------------------------|
|--1010101010101010101010=--|
|---------------------------|

Gt. 2
|---------------------------------------------|
|---------------------------------------------|
|---------------------------------------------|
|--8-8-8-8-8-8-8-8-8-8-8-1010101010101010-----|
|--8-8-8-8-8-8-8-8-8-8-8-1010101010101010-----|
|--8-8-8-8-8-8-8-8-8-8-8-1010101010101010-----|

\\\

We stare at broken clocks, their hands don't turn anymore, the days turn into night, 
and empty
places.

Gt. 1
|---------------------------------------------------------------------------------|
|---------------------------------------------------------------------------------|
|---------------------------------------------------------------------------------|
|---10----------6--------3--------------------------------------------------------|
|---10--(x32)---6--(x16)--3--(x16)------------------------------------------------|
|---10----------6--------3--------------------------------------------------------|
Gt. 2
|--------------------------------------------------------------------------------|
|--------------------------------------------------------------------------------|
|--------------------------------------------------------------------------------|
|---10-------------------3-------------------------------------------------------|
|---10--(x48)------------3--(x16)------------------------------------------------|
|---10-------------------3-------------------------------------------------------|

The day you lost him, i slowly lost you too, for when he died he took a part of YOU!

Gt. 1
|---------------------------------------------------------------------------------|
|---------------------------------------------------------------------------------|
|---------------------------------------------------------------------------------|
|---10----------6---------3-------------------------------------------------------|
|---10--(x32)---6--(x16)--3--(x16)------------------------------------------------|
|---10----------6---------3-------------------------------------------------------|
Gt. 2
|--------------------------------------------------------------------------------|
|--------------------------------------------------------------------------------|
|--------------------------------------------------------------------------------|
|---10--------------------3------------------------------------------------------|
|---10--(x48)------------3--(x16)------------------------------------------------|
|---10--------------------3------------------------------------------------------|


\\\


Gt. 1
|----------------------|
|----------------------|
|----------------------|
|---11--11-10-11-10=---|
|---11--11-10-11-10=---|
|---11--11-10-11-10=---|

                                        Death is only a chapter

Gt. 2
|------------------------|
|------------------------|
|------------------------|
|---11=----------10=-----|
|---11=----------10=-----|
|---11=----------10=-----|

Gt. 1
|----------------------|
|----------------------|
|----------------------|
|---11--11-10-11-10=---|
|---11--11-10-11-10=---|
|---11--11-10-11-10=---|

        So rip out the pages of

Gt. 2
|------------------------|
|------------------------|
|------------------------|
|---11=----------10=-----|
|---11=----------10=-----|
|---11=----------10=-----|

Gt. 1
|----------------------|
|----------------------|
|----------------------|
|---11--11-10-11-10=---|
|---11--11-10-11-10=---|
|---11--11-10-11-10=---|

        Yesterday, Death is only a horizon

Gt. 2
|------------------------|
|------------------------|
|------------------------|
|---11=----------10=-----|
|---11=----------10=-----|
|---11=----------10=-----|


and I'm ready for my...  SUN     TO    SET

Gt. 1
|-------------------------------------------------------------------------------------|
|-------------------------------------------------------------------------------------|
|-------------------------------------------------------------------------------------|
|--10+10+10+10+10+10+10+10+10+10+10+10+10+10+10+10+10+10+10+10+10+10+10+10+-----------|
|--10+10+10+10+10+10+10+10+10+10+10+10+10+10+10+10+10+10+10+10+10+10+10+10+-----------|
|--10+10+10+10+10+10+10+10+10+10+10+10+10+10+10+10+10+10+10+10+10+10+10+10+-----------|

Gt. 2
|-----------------------------------------------------------------------------------|
|-----------------------------------------------------------------------------------|
|-----------------------------------------------------------------------------------|
|------------------------------------------------------11-10------------------------|
|------------------------------------------------------11-10------------------------|
|------------------------------------------------------11-10------------------------|


                                  [after every 16th chug]

Gt. 1
|-------------------------------------------------------------------------------------|
|-------------------------------------------------------------------------------------|
|-------------------------------------------------------------------------------------|
|--10+10+10+10+10+10+10+10+10+10+10+10+10+10+10+10+10+10+10+10+10+10+10+10+-----------|
|--10+10+10+10+10+10+10+10+10+10+10+10+10+10+10+10+10+10+10+10+10+10+10+10+-----------|
|--10+10+10+10+10+10+10+10+10+10+10+10+10+10+10+10+10+10+10+10+10+10+10+10+-----------|


Gt. 2
|-----------------------------------------------------------------------------------|
|-----------------------------------------------------------------------------------|
|-----------------------------------------------------------------------------------|
|----------------------------11-10--------------------------------------------------|
|----------------------------11-10--------------------------------------------------|
|----------------------------11-10--------------------------------------------------|


Gt. 1
|-------------------------------------------------------------------------------------|
|-------------------------------------------------------------------------------------|
|-------------------------------------------------------------------------------------|
|--10+10+10+10+10+10+10+10+10+10+10+10+10+10+10+10+10+10+10+10+10+10+10+10+-----------|
|--10+10+10+10+10+10+10+10+10+10+10+10+10+10+10+10+10+10+10+10+10+10+10+10+-----------|
|--10+10+10+10+10+10+10+10+10+10+10+10+10+10+10+10+10+10+10+10+10+10+10+10+-----------|


Gt. 2
|-----------------------------------------------------------------------------------|
|-----------------------------------------------------------------------------------|
|-----------------------------------------------------------------------------------|
|--------11-10-10-10-10-10-10-10-10-10-10-10-10-10-10-10-10-10-10-10-10-10-10-10----|
|--------11-10-10-10-10-10-10-10-10-10-10-10-10-10-10-10-10-10-10-10-10-10-10-10----|
|--------11-10-10-10-10-10-10-10-10-10-10-10-10-10-10-10-10-10-10-10-10-10-10-10----|


Gt. 1
|-------------|
|-------------|
|-------------|
|--10+10+-----|
|--10+10+-----|
|--10+10+-----|


Gt. 2
|-----------|
|-----------|
|-----------|
|--10-10----|
|--10-10----|
|--10-10----|


\\\


Gt. 1
|--------------------------------------------------------|
|--------------------------------------------------------|
|--------------------------------------------------------|
|--13-10-10-13-10-10-13-10-11-11-11-11/14=-141414141414--|
|--13-10-10-13-10-10-13-10-11-11-11-11/14=-141414141414--|
|--13-10-10-13-10-10-13-10-11-11-11-11/14=-141414141414--|

       THIS IS SUICIDE

Gt. 1
|------------|
|------------|
|------------|
|--13-10-10--|
|--13-10-10--|
|--13-10-10--|

Gt. 1
|--------------------------------------------------------|
|--------------------------------------------------------|
|--------------------------------------------------------|
|--13-10-10-13-10-10-13-10-11-11-11-11/14=-141414141414--|
|--13-10-10-13-10-10-13-10-11-11-11-11/14=-141414141414--|
|--13-10-10-13-10-10-13-10-11-11-11-11/14=-141414141414--|

Gt. 1
|-------------------------------------------------------------------|
|-------------------------------------------------------------------|
|-------------------------------------------------------------------|
|--13-10-10-13-10-10-13-10\16-161616--11-11,11,11,11+,11+,11+,11+---|
|--13-10-10-13-10-10-13-10\16-161616--11-11,11,11,11+,11+,11+,11+---|
|--13-10-10-13-10-10-13-10\16-161616--11-11,11,11,11+,11+,11+,11+---|

Gt. 1
|--------------------------------------------------------|
|--------------------------------------------------------|
|--------------------------------------------------------|
|--13-10-10-13-10-10-13-10-11-11-11-11/14=-141414141414--|
|--13-10-10-13-10-10-13-10-11-11-11-11/14=-141414141414--|
|--13-10-10-13-10-10-13-10-11-11-11-11/14=-141414141414--|

Gt. 1
|--------------------------------------------------------------|-----------|
|--------------------------------------------------------------|-----------|
|--------------------------------------------------------------|-----------|
|--13-10-10-13-10-10-13-10\16-161616--11-11,11,11,11+,11+,11+,11+-|--10=---|
|--13-10-10-13-10-10-13-10\16-161616--11-11,11,11,11+,11+,11+,11+-|--10=---|
|--13-10-10-13-10-10-13-10\16-161616--11-11,11,11,11+,11+,11+,11+-|--10=---|

\\\


Interlude guitar part

Gt. 1   [Picked]
|--------------------------------------------------------------------------|
|--------------------------------------------------------------------------|
|---131313131313131312121212-----------------------------------------------|
|---------------------------1313131310101010101010101010101010101010-------|
|--------------------------------------------------------------------------|
|--------------------------------------------------------------------------|

\\\
Tap to rate this tab
 
# A B C D E F G H I J K L M N O P Q R S T U V W X Y Z