Song name
# A B C D E F G H I J K L M N O P Q R S T U V W X Y Z

Bring Me The Horizon - No Need For Introductions Ive Read About Girls Like You On The Back Of Toilet Doors tab

Pretty fast song, but pretty easy to play.
Couldn't figure out the harmonics very well, please correct me if I got them wrong :)

Drop B Tuning

Starts at 0:16
C#|---------------------------|
G#|---------------------------|
E |--########-----------------|
B |--77777777-  --|
F#|--77777777-----------------|
B |---------------------------|
     (Harmonics)
0:18
C#|------------------------------------------
G#|------------------------------------------
E |------------------------------------------
B |------------9-----------------------------
F#|--8888-8888-8888-6896-8888-8888-12--11--9-
B |--8888-8888-8888-6896-8888-8888-12--11--9-

C#|----------------------------------------|
G#|----------------------------------------|
E |----------------------------------------|
B |------------9---------------------------|
F#|--8888-8888-8888-6896-8888-8888-8-8-8---|
B |--8888-8888-8888-6896-8888-8888-8-8-8---|

0:26
C#|-----------------------------------------------------------
G#|-----------------------------------------------------------
E |-----------------------------------------------------------
B |-----------------------------------------------------------
F#|--8888-8888-9999-9999-11111111-11111111-12121212-12121212--
B |--8888-8888-9999-9999-11111111-11111111-12121212-12121212--
                            (Elevens)          (Twelves)

C#|--------------------------------------------------------------------------------|
G#|--------------------------------------------------------------------------------|
E |--------------------------------------------------------------------------------|
B |--------------------------------------------------------------------------------|
F#|--8888-8888-9999-9999-12121212-12121212-17171717-17171717-17171717-17171717-17--|
B |--8888-8888-9999-9999-12121212-12121212-17171717-17171717-17171717-17171717-17--|
                             (Twelves)                 (Seventeens)



0:41
C#|----------------------------------------------------------
G#|----------------------------------------------------------
E |----------------------------------------------------------
B |--10---10/11---11\9---8-8-8-8-10---10/11---9/12---8-8-8-8-
F#|--10---10/11---11\9---8-8-8-8-10---10/11---9/12---8-8-8-8-
B |--10---10/11---11\9---8-8-8-8-10---10/11---9/12---8-8-8-8-
                         . . . .                     . . . .

C#|-------------------------------------------------------------------|
G#|-------------------------------------------------------------------|
E |-------------------------------------------------------------------|
B |--10---10/11---11\9---8-8-8-8-8-8-8-8-10---10/11---9/12---8-8-8-8--|
F#|--10---10/11---11\9---8-8-8-8-8-8-8-8-10---10/11---9/12---8-8-8-8--|
B |--10---10/11---11\9---8-8-8-8-8-8-8-8-10---10/11---9/12---8-8-8-8--|
                         . . . . . . . .                     . . . .
Tap to rate this tab
# A B C D E F G H I J K L M N O P Q R S T U V W X Y Z