Song name
# A B C D E F G H I J K L M N O P Q R S T U V W X Y Z

Bring Me The Horizon - 15 Fathoms Counting tab

Bring Me The Horizon
Fifteen Fathoms, Counting
Count Your Blessings

these guys are such freaks. . in an awesome way though

Tuning (low to high) - { Eb B F# B B E }



|-----------------------|-----------------------|
|---------0----------0--|---------0----------0--|
|---------0----------0--|---------0----------0--|
|-----4----------0------|-----4-4--------0------|
|---0---0------0---0----|---0----------0---0----|
|-5----------1----------|-5----------1----------|


|---------------------0---------------------2---2-|
|---------0----2----2---2-------------------0---0-|
|-------0----0----------------0-------------0-0-0-|
|-----0-----------0---------4---4----0---0--------|
|---0---------------------4------------0----------|
|-1--------------------------------1--------------|

|---------------------0---------------------2---2-|
|-----2-----2--2----2---2-------------------0---0-|
|---------0-------------------0--------0----0-0-0-|
|-----------------0---------4---4----0---0--------|
|---0---0-----------------4-----------------------|
|-1--------------------------------1--------------|


|----------------7--7-7-7-77-----------------2----2-22-2222-|
|----------------4--4-4-4-44-----------------0----0-00-0000-|
|-0/2-22-/4--0---4--4-4-4-44--0/2-22-/4--0---0------00-0000-|
|------------0---0--0-0-0-00-------------0---0-4/5----------|
|-0/2-22-/4--0-0--------------0/2-22-/4--0-0----------------|
|------------1-1-------------------------1-1----------------|x2

|--------------------2--|--------------------2--|
|-----2------2-------0--|-----2------2-------0--|
|---0------0---------0--|---0------0---------0--|
|--------------------0--|--------------------0--|
|-----------------------|-----------------------|
|-1------0------3-------|-1------0------3-------|x2

|-----------------------|-----------|
|---------0----------0--|---------0-|
|---------0----------0--|---------0-|
|-----4----------0------|-----4-----|
|---0---0------0---0----|---0---0---|
|-5----------1----------|-5---------|






'do do do'
Tap to rate this tab
# A B C D E F G H I J K L M N O P Q R S T U V W X Y Z