Song name
# A B C D E F G H I J K L M N O P Q R S T U V W X Y Z

Bring Me The Horizon - Suicide Season tab

Since Bring me the horizon are my favourite band, im gonna bring you the good.
Yeah, i know, mostly everysong on Suicide season is Drop A#
but this one's in Drop C. 
Well i done my best, i hope you enjoy =]]

tuning - Drop C
Band - bring me the horizon
Album - suicide season.


---[Lee Malia]------

Intro.

0.02
e|-------------------------------|-----------------------------|
B|-------------------------------|-----------------------------|
D|--777777777--------------------|--77777777-------------------|
D|--777777777-77777777-77777777--|--77777777-77777777-7777777--|
A|--555555555-55555555-55555555--|--55555555-55555555-5555555--|
E|------------88888888-55555555--|-----------88888888-5555555--|

0.40
e|-------------------------------|-----------------------------|
B|-------------------------------|-----------------------------|
D|--777777777--------------------|--77777777-------------------|
D|--777777777-77777777-77777777--|--77777777-77777777-7777777--|
A|--555555555-55555555-55555555--|--55555555-55555555-5555555--|
E|------------88888888-55555555--|-----------88888888-5555555--|

1.07
e|-------------------------------|-----------------------------|
B|-------------------------------|-----------------------------|
D|--777777777--------------------|--77777777-------------------|
D|--777777777-77777777-77777777--|--77777777-77777777-7777777--|
A|--555555555-55555555-55555555--|--55555555-55555555-5555555--|
E|------------88888888-55555555--|-----------88888888-5555555--|

2.06
e|--13-12--13-12-13-12-10--17--|--13-12-13-12-13-12-10-10-|
B|-----------------------------|--------------------------|
G|-----------------------------|--------------------------| FAST picking.
D|-----------------------------|--------------------------|
A|-----------------------------|--------------------------|
E|-----------------------------|--------------------------|

2.31
e|-------------------------------|-----------------------------|
B|-------------------------------|-----------------------------|
D|--777777777--------------------|--77777777-------------------|
D|--777777777-77777777-77777777--|--77777777-77777777-7777777--|
A|--555555555-55555555-55555555--|--55555555-55555555-5555555--|
E|------------88888888-55555555--|-----------88888888-5555555--|

2.59
e|---------------------------------|
B|---------------------------------|
G|---------------------------------|
D|--13-13-0--13-13-xx-0--13-13-xx--|
A|--13-13-0--13-13-xx-0--13-13-xx--|
D|--13-13-0--13-13-xx-0--13-13-xx--|

3.12
e|-------------------------------------------------------------------|
B|-------------------------------------------------------------------|
G|-------------------------------------------------------------------|
D|--00000000000-12-12------------12-12-12-12-00000000-12-12-12-12-12-|
A|--00000000000-12-12-0000000000-12-12-12-12-00000000-12-12-12-12-12-|
D|--00000000000-12-12-0000000000-12-12-12-12-00000000-12-12-12-12-12-|
PM* ***********       **********             ********

3.29
e|-------------------------------------------------------|
B|-------------------------------------------------------|
G|-------------------------------------------------------|
D|--3-0-0-----------3-0-0-3-0-3-0--1-1-1-1-1-4-4-4-4-4-4-|
A|--3-0-0--1-1-1-1--3-0-0-3-0-3-0--1-1-1-1-1-4-4-4-4-4-4-|
D|--3-0-0--1-1-1-1--3-0-0-3-0-3-0--1-1-1-1-1-4-4-4-4-4-4-|
PM*        *******

3.37
e|-------------------------------------------------|
B|-------------------------------------------------|
G|-------------------------------------------------|
D|--3-0-0-3-0-0-3-0-0-6-6-6-6-6-6-6-1-1-1-1-1-1-1--|
A|--3-0-0-3-0-0-3-0-0-6-6-6-6-6-6-6-1-1-1-1-1-1-1--|
D|--3-0-0-3-0-0-3-0-0-6-6-6-6-6-6-6-1-1-1-1-1-1-1--|
PM*                                     *********

3.50
e|-------------------------------------------------------|
B|-------------------------------------------------------|
G|-------------------------------------------------------|
D|--3-0-0-----------3-0-0-3-0-3-0--1-1-1-1-1-4-4-4-4-4-4-|
A|--3-0-0--1-1-1-1--3-0-0-3-0-3-0--1-1-1-1-1-4-4-4-4-4-4-|
D|--3-0-0--1-1-1-1--3-0-0-3-0-3-0--1-1-1-1-1-4-4-4-4-4-4-|
PM*        *******

Amazing interlude!
4.38
e|--12--12--12--12---13--13--13--13---8--8--8--8---5--5--5--5---|
B|----10--10--10--10---11--11--11--11---6--6--6--6--3--3--3--3--|
G|--------------------------------------------------------------|
D|--------------------------------------------------------------|
A|--------------------------------------------------------------|
D|--------------------------------------------------------------|


e|--12--12--12--12---13--13--13--13---8--8--8--8---5--5--5--5---|
B|----10--10--10--10---11--11--11--11---6--6--6--6--3--3--3--3--|
G|--------------------------------------------------------------|
D|--------------------------------------------------------------|
A|--------------------------------------------------------------|
D|--------------------------------------------------------------|

bridge.
5.38
e|---------------------------------------------|
B|---------------------------------------------|
G|---------------------------------------------|
D|--888888888-10101010101-1212121212-00000000--|
A|--888888888-10101010101-1212121212-00000000--|
D|--888888888-10101010101-1212121212-00000000--|

5.58
e|---------------------------------------------|
B|---------------------------------------------|
G|---------------------------------------------|
D|--888888888-10101010101-1212121212-00000000--|
A|--888888888-10101010101-1212121212-00000000--|
D|--888888888-10101010101-1212121212-00000000--|

Outro
6.00
e|------------------------------------------------------|
B|------------------------------------------------------|
G|-------------15151515-141414141-101011010-------------|
D|-------------------------------------------1212121212-|
A|--1313131313------------------------------------------|
D|------------------------------------------------------|

The end =]]

Yeah, the songs in drop c, so dont worry about the tuning next to it =]
And soon as this goes throw, i will be posting curtis wards part.
thnak you =]]
Tap to rate this tab
# A B C D E F G H I J K L M N O P Q R S T U V W X Y Z