Song name
# A B C D E F G H I J K L M N O P Q R S T U V W X Y Z

Bring Me The Horizon - 15 Fathoms Counting tab

-------------------------------------------------------------------------------
		  Fifteen Fathoms, Counting - Bring Me the Horizon
-------------------------------------------------------------------------------

Tabbed by: Dan Wright
Email: muzikvlr1714@yahoo.com

Tuning: Standard (eBGDAE)

    1   +   2   +   3   +   4   +      1   +   2   +   3   +   4   +
e|----------------------------------|----------------------------------|
B|----------------------------------|------------------0---------------|
G|----------------------------------|----------3-------3---------------|
D|----------------------------------|------------------4---------------|
A|----------------------------------|------2-------2-------------------|
E|----------------------------------|--4-------------------------------|

    1   +   2   +   3   +   4   +      1   +   2   +   3   +   4   +
e|----------------------------------|----------------------------------|
B|----------------------------------|------------------0---------------|
G|----------------------------------|------------------4---------------|
D|----------------------------------|----------4-------4---------------|
A|----------------------------------|------2-------2-------------------|
E|----------------------------------|--0-------------------------------|

      1   +   2   +   3   +   4   +    1   +   2   +   3   +   4   +
e|----------------------------------|----------------------------------|
B|----------------------------------|------------------0---------------|
G|----------------------------------|----------3-------3---------------|
D|----------------------------------|------------------4---------------|
A|----------------------------------|------2-------2-------------------|
E|----------------------------------|--4-------------------------------|

    1   +   2   +   3   +   4   +      1   +   2   +   3   +   4   +
e|----------------------------------|----------------------------------|
B|----------------------------------|------------------0---------------|
G|----------------------------------|------------------4---------------|
D|----------------------------------|----------4-------4---------------|
A|----------------------------------|------2-------2-------------------|
E|----------------------------------|--0-------------------------------|

    1   +   2   +   3   +   4   +      1   +   2   +   3   +   4   +
e|----------------------------------|----------------------------------|
B|----------------------------------|--------------0---0-------0---0---|
G|----------------------------------|------------------4---------------|
D|----------------------------------|----------4-------4---------------|
A|----------------------------------|------2-------2-------------------|
E|----------------------------------|--0-------------------------------|

    1   +   2   +   3   +   4   +      1   +   2   +   3   +   4   +
e|--0-------0-----------------------|----------------------------------|
B|------2-------------------0-------|----------------------------------|
G|----------------------3-------3---|------------------11------11--11--|
D|------------------1---------------|----------9-------9-------9---9---|
A|----------------------------------|------9-------9---9-------9---9---|
E|----------------------------------|--0-------------------------------|

    1   +   2   +   3   +   4   +      1   +   2   +   3   +   4   +
e|----------------------------------|----------------------------------|
B|----------------------------------|--------------0-----------0---0---|
G|------11--11------11--11--11------|------------------4---------------|
D|------9---9-------9---9---9-------|----------4-------4---------------|
A|------9---9-------9---9---9-------|------2-------2-------------------|
E|----------------------------------|--0-------------------------------|

    1   +   2   +   3   +   4   +      1   +   2   +   3   +   4   +      
e|--0-------0-----------------------|----------------------------------|
B|------2-------------------0-------|----------------------------------|
G|----------------------3-------3---|------------------11------11--11--|
D|------------------1---------------|----------9-------9-------9---9---|
A|----------------------------------|------9-------9---9-------9---9---|
E|----------------------------------|--0-------------------------------|

    1   +   2   +   3   +   4   +      1   +   2   +   3   +   4   +
e|----------------------------------|----------------------------------|
B|----------------------------------|--------------0-----------0---0---|
G|------11--11------11--11--11------|------------------4---------------|
D|------9---9-------9---9---9-------|----------4-------4---------------|
A|------9---9-------9---9---9-------|------2-------2-------------------|
E|----------------------------------|--0-------------------------------|

    1   +   2   +   3   +   4   +      1   +   2   +   3   +   4   +
e|--0-------0-----------------------|----------------------------------|
B|------2-------------------0-------|----------------------------------|
G|----------------------3-------3---|------------------11------11--11--|
D|------------------1---------------|----------9-------9-------9---9---|
A|----------------------------------|------9-------9---9-------9---9---|
E|----------------------------------|--0-------------------------------|

    1   +   2   +   3   +   4   +      1   +   2   +   3   +   4   +
e|----------------------------------|----------------------------------|
B|----------------------------------|--------------0-----------0---0---|
G|------11--11------11--11--11------|------------------4---------------|
D|------9---9-------9---9---9-------|----------4-------4---------------|
A|------9---9-------9---9---9-------|------2-------2-------------------|
E|----------------------------------|--0-------------------------------|

    1   +   2   +   3   +   4   +      1   +   2   +   3   +   4   +
e|--0-------0-----------------------|----------------------------------|
B|------2-------------------0-------|----------------------------------|
G|----------------------3-------3---|------------------11------11--11--|
D|------------------1---------------|----------9-------9-------9---9---|
A|----------------------------------|------9-------9---9-------9---9---|
E|----------------------------------|--0-------------------------------|

    1   +   2   +   3   +   4   +      1   +   2   +   3   +   4   +      
e|----------------------------------|----------------------------------|
B|----------------------------------|----------------------------------|
G|------11--11------11--11--11------|--4---4-/-6---6---6---8-\-6---4---|
D|------9---9-------9---9---9-------|--x---x---x---x---x---x---x---x---|
A|------9---9-------9---9---9-------|--2---2-/-4---4---4---6-\-4---2---|
E|----------------------------------|----------------------------------|

    1   +   2   +   3   +   4   +    1   +   2   +   3   +   4   +
e|------------------7-------7---7---|------7---7-------7---7---7-------|
B|------------------4-------4---4---|------4---4-------4---4---4-------|
G|------------------4-------4---4---|------4---4-------4---4---4-------|
D|------------------6-------6---6---|------6---6-------6---6---6-------|
A|----------------------------------|----------------------------------|
E|----------4-----------------------|----------------------------------|

    1   +   2   +   3   +   4   +      1   +   2   +   3   +   4   +
e|----------------------------------|----------------------------------|
B|----------------------------------|----------------------------------|
G|--4---4-/-6---6---6---8-/-6---4---|------------------11------11--11--|
D|--x---x---x---x---x---x---x---x---|------------------9-------9---8---|
A|--2---2-/-4---4---4---6-/-4---2---|------------------9-------9---9---|
E|----------------------------------|----------0-----------------------|

    1   +   2   +   3   +   4   +      1   +   2   +   3   +   4   +
e|----------------------------------|----------------------------------|
B|----------------------------------|----------------------------------|
G|------11--11------11--11--11------|--4---4-/-6---6---6---8-/-6---4---|
D|------9---9-------9---9---9-------|--x---x---x---x---x---x---x---x---|
A|------9---9-------9---9---9-------|--2---2-/-4---4---4---6-/-4---2---|
E|----------------------------------|----------------------------------|

    1   +   2   +   3   +   4   +    1   +   2   +   3   +   4   +
e|------------------7-------7---7---|------7---7-------7---7---7-------|
B|------------------4-------4---4---|------4---4-------4---4---4-------|
G|------------------4-------4---4---|------4---4-------4---4---4-------|
D|------------------6-------6---6---|------6---6-------6---6---6-------|
A|----------------------------------|----------------------------------|
E|----------4-----------------------|----------------------------------|

    1   +   2   +   3   +   4   +      1   +   2   +   3   +   4   +
e|----------------------------------|----------------------------------|
B|----------------------------------|----------------------------------|
G|--4---4---6---6---6---8---6---4---|------------------11------11--11--|
D|--x---x---x---x---x---x---x---x---|------------------9-------9---8---|
A|--2---2-/-4---4---4---6-/-4---2---|------------------9-------9---9---|
E|----------------------------------|----------0-----------------------|

    1   +   2   +   3   +   4   +      1   +   2   +   3   +   4   +
e|----------------------------------|--------------------------2-------|
B|----------------------------------|----------2-----------2---2-------|
G|------11--11------11--11--11------|------4-----------4-------6-------|
D|------9---9-------9---9---9-------|--------------1-----------4-------|
A|------9---9-------9---9---9-------|----------------------------------|
E|----------------------------------|--0-------------------------------|

    1   +   2   +   3   +   4   +      1   +   2   +   3   +   4   +      
e|------------------2---------------|--------------------------2-------|
B|------------------2---------------|----------2-----------2---2-------|
G|------------------6---------------|------4-----------4-------6-------|
D|------------------4---------------|--------------1-----------4-------|
A|----------------------------------|----------------------------------|
E|----------2-----------------------|--0-------------------------------|

    1   +   2   +   3   +   4   +      1   +   2   +   3   +   4   +
e|------------------2---------------|--------------------------2-------|
B|------------------2---------------|----------2-----------2---2-------|
G|------------------6---------------|------4-----------4-------6-------|
D|------------------4---------------|--------------1-----------4-------|
A|----------------------------------|----------------------------------|
E|----------2-----------------------|--0-------------------------------|

    1   +   2   +   3   +   4   +      1   +   2   +   3   +   4   +
e|------------------2---------------|--------------------------2-------|
B|------------------2---------------|----------2-----------2---2-------|
G|------------------6---------------|------4-----------4-------6-------|
D|------------------4---------------|--------------1-----------4-------|
A|----------------------------------|----------------------------------|
E|----------2-----------------------|--0-------------------------------|

    1   +   2   +   3   +   4   +      1   +   2   +   3   +   4   +
e|------------------2---------------|--------------------------2-------|
B|------------------2---------------|----------2-----------2---2-------|
G|------------------6---------------|------4-----------4-------6-------|
D|------------------4---------------|--------------1-----------4-------|
A|----------------------------------|----------------------------------|
E|----------2-----------------------|--0-------------------------------|

    1   +   2   +   3   +   4   +      1   +   2   +   3   +   4   +
e|------------------2---------------|--------------------------2-------|
B|------------------2---------------|----------2-----------2---2-------|
G|------------------6---------------|------4-----------4-------6-------|
D|------------------4---------------|--------------1-----------4-------|
A|----------------------------------|----------------------------------|
E|----------2-----------------------|--0-------------------------------|

    1   +   2   +   3   +   4   +      1   +   2   +   3   +   4   +
e|----------------------------------|----------------------------------|
B|----------------------------------|------------------0---------------|
G|----------------------------------|------------------4---------------|
D|----------------------------------|----------4-------4---------------|
A|----------------------------------|------2-------2-------------------|
E|----------------------------------|--0-------------------------------|

    1   +   2   +   3   +   4   +      1   +   2   +   3   +   4   +
e|----------------------------------|----------------------------------|
B|----------------------------------|------------------0---------------|
G|----------------------------------|----------3-------3---------------|
D|----------------------------------|------------------4---------------|
A|----------------------------------|------2-------2-------------------|
E|----------------------------------|--4-------------------------------|



| /  slide up
| \  slide down
| h  hammer-on
| p  pull-off
| ~  vibrato
| +  harmonic
| x  Mute note
| r  rest
| b  bend
===============================================================================
Tap to rate this tab
 
# A B C D E F G H I J K L M N O P Q R S T U V W X Y Z