Song name
# A B C D E F G H I J K L M N O P Q R S T U V W X Y Z

Bring Me The Horizon - Pray For Plagues tab

                             PRAY FOR PLAGUES
                            Bring Me The Horizon
                  (From The 2006 Album Count Your Blessings)


Gtr 1 - Tunning Drop B - (B F# B E G# C#)
Gtr 2 - Tunning Drop B - (B F# B E G# C#)

Gtr1 (0:00-0:05)
|---------------------------------------------------|-----------|
|---------------------------------------------------|-----------|
|---------------------------------------------8h11p8|--7---6-6-9|
|1-4-3-1---------------------------7h10p7-----------|-----------|
|1-4-3-1-----6-9---5h8p5-4h7p4----------------------|-----------|
|1-4-3-1--0------0-------------0-0--------0-0-------|----0------|
 * * *    *                    * *        * *

Gtr2 (0:00-0:05)
|-----------------------------------------------------|---------------------
|-----------------------------------------------------|---------------------
|-----------------------------------7h10p7------6h9p6-|--------------8-10-11
|-----------------------------------------------------|--------7-9-10-------
|1-4-3-1-----6-9----5h8p5-4h7p4-----------------------|--7-9-10-------------
|1-4-3-1--0-------0-------------0-0---------0-0-------|---------------------
 * * * *  *       *             * *         * *

Gtr1 (0:06-0:15)                                            
|---------------------------------------------------------|------------|
|---------------------------------------------------------|------------|
|---------------------------------------------------------|---[12]~----|
|------------------3----------------------7-----6-------x2|------------|
|--5h8-4-----5-----------6------5h8-4-----------------8---|------------|
|0-------0-0---0-0---0-0----0-0-------0-0---0-0---0-0-----|------------|
 *       * *   * *   * *    * *       * *   * *   * *

Gtr2 (0:06-0:15)
|----------------|---------------------|----------------|-------------|
|----------------|---------------------|----------------|-------------|
|----------------|---------------------|----------------|-------------|
|0---------------|(0)------------------|0---------------|-------------|
|0---------------|(0)------------------|0--------7b-----|-------------|
|0---------------|(0)------------------|0---------------|/18~~~~~~~~~~|

|----------------|---------------------|----------------|-------------|
|----------------|---------------------|----------------|-------------|
|----------------|---------------------|----------------|-------------|
|0---------------|(0)------------------|0---------------|-------------|
|0---------------|(0)------------------|0---------------|00--00---0---|
|0---------------|(0)------------------|0---------------|00--00---0---|

Gtr1
 (0:16-0:49)
|-----------------------------------------------------------|
|-----------------------------------------------------------| 
|-----------------------------------------------------------|  
|--------------------3----------------------7-----6-------x2|   
|----5h8-4-----5-----------6------5h8-4-----------------8---|
|--0-------0-0---0-0---0-0----0-0-------0-0---0-0---0-0-----|   
   *       * *   * *   * *    * *       * *   * *   * *            
                                                                     
|---------------------------------------------------------------------|
|---------------------------------------------------------------------|
|------7h10-6------7-----10-----8------7h10-6-----6h9---7h10---8h11---|
|-------------------------------------------------------------------x2|
|---------------------------------------------------------------------|
|--0-0---------0-0---0-0----0-0----0-0--------0-0-----0------0--------|x2

Gtr2 (0:16-0:49)
|-----------------------------------------------------------|
|-----------------------------------------------------------| 
|-----------------------------------------------------------|  
|-------------------------------------------7-----6---------|  
|-----5h8-4-----5-----8-----6------5h8-4-----------------8--|    
|--00-------0-0---0-0---0-0----0-0-------0-0---0-0---0-0--x2|   
   **       * *   * *   * *    * *       * *   * *   * *             

|--------|-------|----------|--------|
|--------|-------|----------|--------|
|--------|-------|----------|--------| 
|--------|-------|----------|--------|
|00----00|-00-00-|-00----00-|---00---|
|00----00|-00-00-|-00----00-|---00-x2|
 **    **  ** **   **    **      **

|------------------------------------------------------------|
|------------------------------------------------------------| 
|------------------------------------------------------------|  
|--------------------------------------------7-----6-------x2|    
|-----5h8-4-----5-----8-----6------5h8-4-----------------8---|    
|--00-------0-0---0-0---0-0----0-0-------0-0---0-0---0-0-----|   
   **       * *   * *   * *    * *       * *   * *   * * 
                  
|----------------------------------------------------------------------|
|----------------------------------------------------------------------|
|----------------------------------------------------------------------|
|--------------------------------------------------------------------x2|
|----5h8-4-------5-----8------6------5h8-4------4h7p4---5h8p5---6h9p6--|
|0-0---------0-0---0-0----0-0----0-0--------0-0-------0--------0-------|
  

Gtr1 (0:50-0:57)
|---------------------------------------------------|
|---------------------------------------------------|
|----------------------------[12]bend--[14]bend-----|
|---------------------------------------------------|
|--5----7----8----4---------------------------------|
|----00---00---00---00-00-00------00-00-----00-00---|
     **   **   **   ** ** **      ** **     ** **

|-----------------------------------------------------|
|-----------------------------------------------------|
|----------------------------[14]bend--[12]bend-------|
|-----------------------------------------------------|
|--5----7----8----4-------------------------5-4-------|
|----00---00---00---00-00-00------00-00---------4-3---|
     **   **   **   ** ** **      ** **

Gtr2 (0:50-0:57)
|----------------------------------------------------|
|----------------------------------------------------|
|------------------------------[2]bend--[4]bend------| 
|----------------------------------------------------|x2
|--5----7----8----4---------------------------5-4----|
|----00---00---00---00-000-000------00-00---------4-3|
     **   **   **   ** *** ****     ** **     * * * *


Gtr1 (0:58-1:00)
|--------------|
|--------------|
|--------------|
|--1-4-5-1-1---|
|--1-4-5-1-1---|
|--1-4-5-1-1---|

Gtr2 (0:58-1:00)
|--------------|
|--------------|
|--------------|
|--1-4-5-1-1---|
|--1-4-5-1-1---|
|--1-4-5-1-1---|

Grt1  1:01
|-------------|
|-------------|
|-------------|
|--0-0--0-0---|
|--0-0--0-0---|
|--0-0--0-0---|

Gtrs 1&2  (1:02-1:08)
|-------------------------------------------------|
|-------------------------------------------------|
|-------------------------------------------------|
|--0-0--0-0---0-00-00-00---0000000--3-1-0-4-3-1---|
|--0-0--0-0---0-00-00-00---0000000--3-1-0-4-3-1---|
|--0-0--0-0---0-00-00-00---0000000--3-1-0-4-3-1---|
   * *  * *   * ** ** **   *******

  (1:09 - 1:17)                                                 Gtr1
|---------------------------------------------------------|-----------|
|---------------------------------------------------------|-----------|
|---------------------------------------------------------|-[12]bend--|
|--0-0--0-0---0-00-00-00---0000000--3-1-0-4-3-1--0-0--0-0-|-----------|
|--0-0--0-0---0-00-00-00---0000000--3-1-0-4-3-1--0-0--0-0-|-----------|
|--0-0--0-0---0-00-00-00---0000000--3-1-0-4-3-1--0-0--0-0-|-----------|
   * *  * *   * ** ** **   *******               * *  * *

  (1:18-1:24)
|-------------------------------------------------|
|-------------------------------------------------|
|-------------------------------------------------|
|--0-0--0-0---0-00-00-00---0000000--3-1-0-4-3-1---|
|--0-0--0-0---0-00-00-00---0000000--3-1-0-4-3-1---|
|--0-0--0-0---0-00-00-00---0000000--3-1-0-4-3-1---|
   * *  * *   * ** ** **   *******

  (1:25-1:29)
|------------------------------------|
|------------------------------------|
|------------------------------------|
|--0-0--0-0---0-00-00-00---0000000---|
|--0-0--0-0---0-00-00-00---0000000---|
|--0-0--0-0---0-00-00-00---0000000---|


Gtr1 (1:31-1:56)
|---------------------------------------------------------------|
|---------------------------------------------------------------|
|---------------------------------------------------------------| x6
|----------4---------3-------------------12----------11---------|
|------6-5-------5-4-------3h5-----10-12-------9--11------------|
|--0-0-------0-0-------0-0-----0-0---------0-0----------10h12---|
   * *  * *   * ** ** **   *******

Gtr2 (1:31-1:56)
|----------------|---------------------|--------------|--------------|
|----------------|---------------------|--------------|--------------|
|----------------|---------------------|--------------|--------------|
|0---------------|(0)------------------|0-------------|(0)---------x2| 
|0---------------|(0)------------------|0-------------|(0)-----------|
|0---------------|(0)------------------|0-------------|(0)-----------|


|--------|-------|----------|--------|
|--------|-------|----------|--------|
|--------|-------|----------|--------| 
|--------|-------|----------|------x4|
|00----00|----00-|-00----00-|----00--|
|00----00|----00-|-00----00-|----00--|

(1:57-1:58)
|--------|
|--------|
|--------|
|--0-0---|
|--0-0---|
|--0-0---|
   * *

Gtr1 (1:59-2:07)
|---------------------------------------------------------------|
|---------------------------------------------------------------|
|---------------------------------------------------------------| x2
|----------4---------3-------------------12----------11---------|
|------6-5-------5-4-------3h5-----10-12-------9--11------------|
|--0-0-------0-0-------0-0-----0-0---------0-0----------10h12---|
   * *       * *       * *     * *         * *

Gtr2 (1:59-2:07)
|---------------------------------------------------------------|
|---------------------------------------------------------------|
|---------------------------------------------------------------| x2
|--------------------------------------4-7---------3-6----------|
|------9-6-9------8-6-8------3h5-----7-----------6----------3-5-|
|--0-0-------0-0---------0-0-----0-0---------0-0--------0-0-----|

Gtrs 1&2  (2:08-2:11)
|--------------------------------13-16---------------------------15-17-18--|
|--------------------------12-15------------------------15-17-18-----------|
|--------------------11-14---------------------14-16-17--------------------|
|--------------10-13------------------13-15-16-----------------------------|
|--------------------------------------------------------------------------|
|-00-00-00-00--------------------------------------------------------------|
  ** ** ** **

|--17p13p10-17p13p10-9p12p16-9p12p16-------------|
|------------------------------------------------|
|------------------------------------------------|
|------------------------------------------------|
|------------------------------------------------|
|------------------------------------------------|

Gtr1 (2:12-2:24) (Solo)
|----------------13-17-13-----------------|
|-------------15----------15--------------|
|----------14----------------14-----------|
|-----12-15---------------------15-12-----|x2
|--12-------------------------------------|
|-----------------------------------------|

|-----------------12-16-12----------------|
|--------------14----------14-------------|
|-----------13----------------13----------|x2
|-----11-14---------------------14-11-----|
|--11-------------------------------------|
|-----------------------------------------|

|----------------13-17-13-----------------|
|-------------15----------15--------------|
|----------14----------------14-----------|
|-----12-15---------------------15-12-----|x2
|--12-------------------------------------|
|-----------------------------------------|

|-----------------12-16-12----------------|
|--------------14----------14-------------|
|-----------13----------------13----------| 
|-----11-14---------------------14-11-----|
|--11-------------------------------------|
|-----------------------------------------|

Gtr2 (2:12-2:24) (Solo)
|-------------------------------------------------|
|-------------------------------------------------|
|-------------------------------------------------|
|--0~------------6~---------0~-----------6~--6\---|
|--0~------------6~---------0~-----------6~--6\---|
|--0~------------6~--/18----0~-----------6~--6\---|

Gtr1 (2:25-2:32)
|---------------------------------------------------|
|---------------------------------------------------|
|---------------------------------------------------|
|--------------------------------------10-9---------|
|-----------"12(x6)-"11(x12)-----11------------11---|
|--"12(x32)-------------------12----12------12------|

Gtr2 (2:25-2:32)
|------------------------------------------------|
|------------------------------------------------|
|------------------------------------------------|
|------7(x6)--6(x12)---6----5-4----6~~~~~~-------|
|5(x32)--------------5---5-------5---------------|
|------------------------------------------------|

Gtrs 1&2  (2:33-2:40)
|-------------------------------------------------------------------|
|-------------------------------------------------------------------|
|----------7---------------------[7]---------7---------7-6--10--6---|
|--0-3-2-0-7-0-3-2-0-8-7-0-3-2-0-----0-3-2-0-7-0-3-2-0-7-6--10--6---|
|--0-3-2-0---0-3-2-0-8-7-0-3-2-0-----0-3-2-0---0-3-2-0--------------|
|--0-3-2-0---0-3-2-0-8-7-0-3-2-0-----0-3-2-0---0-3-2-0-----0---0----|
   * * * *   * * * *     *     *     * * * *   * * * *     *   *

  (2:41-2:45)
|--------------------------------------------------------|
|--------------------------------------------------------|
|----------7---------------------[7]---------7-----------|
|--0-3-2-0-7-0-3-2-0-8-7-0-3-2-0-----0-3-2-0-7-0-0-0-0---|
|--0-3-2-0---0-3-2-0-8-7-0-3-2-0-----0-3-2-0---0-0-0-0---|
|--0-3-2-0---0-3-2-0-8-7-0-3-2-0-----0-3-2-0---0-0-0-0---|
   * * * *   * * * *     *     *     * * * *   * * * *

  (2:46-2:48)
|-------------------------------------------------------------------------|
|--------------------10h13p10h13p10h13--9h12p9h12p9h12--------------------|
|--11h14p11h14p11h14-----------------------------------10h13p10h13p10h13--|
|-------------------------------------------------------------------------|
|-------------------------------------------------------------------------|
|-------------------------------------------------------------------------|

   (2:49-2:55)                                       Gtr1
|-------------------------------------------------|--------|
|-------------------------------------------------|--------|
|-------------------------------------------------|-[12]---|
|--0-3-2-0---0-3-2-0-8-0-0---0-3-2-0---0-3-2-0-8-0|--------|
|--0-3-2-0---0-3-2-0-8-0-0---0-3-2-0---0-3-2-0-8-0|--------|
|--0-3-2-0---0-3-2-0-8-0-0---0-3-2-0---0-3-2-0-8-0|--------|
   * * * *   * * * *   * *   * * * *   * * * *   *
 2:56 - 3:01
|------------------------------------------------|
|------------------------------------------------|
|------------------------------------------------|
|--0-3-2-0---0-3-2-0-8-0-0---0-3-2-0---0-3-2-0---|
|--0-3-2-0---0-3-2-0-8-0-0---0-3-2-0---0-3-2-0---|
|--0-3-2-0---0-3-2-0-8-0-0---0-3-2-0---0-3-2-0---|
   * * * *   * * * *   * *   * * * *   * * * *

Gtr1  (3:02-3:03)
|---------------------------------------------------|
|---------------------------------------------------|
|------------------------------------------8h11p8---|
|------------------------------7h107p7--------------|
|-----6--9----5h8p5--4h7p4--------------------------|
|--0-------0---------------0-0---------0-0----------|
   *       *               * *         * *
Gtr2 (3:02-3:03)
|--------------------------|--------------------------|
|--------------------------|--------------------------|
|--------------------------|----7h10p7-------6h9p6----|
|--------------------------|--------------------------|
|-----6--9----5h8p5--4h7p4-|--------------------------|
|---0-------0--------------|0-0----------0-0----------|
    *       *               * *          * *
Gtr1 (3:04-3:06)
|--------------|
|--------------|
|--[7]--[6]-6-9|
|--------------|
|--------------|
|-----0--------|

Gtr2 (3:04-3:06)
|--------------------------|
|--------------------------|
|----------------8-10-11---|
|---------7-9-10-----------|
|--7-9-10------------------|
|--------------------------|

Gtr1  (3:07-3:14)
|-----------------------------------------------------------|
|-----------------------------------------------------------|
|-----------------------------------------------------------| x2
|--------------------3----------------------7-----6---------|
|----5h8-4-----5-----------6------5h8-4-----------------8---|
|--0-------0-0---0-0---0-0----0-0-------0-0---0-0---0-0-----|
   *       * *   * *   * *    * *       * *   * *   * *

   (3:15-3:23)
|----------------------------------------------------------------|
|----------------------------------------------------------------|
|----------------------------------------------------------------| x2
|----------------------3-----------------------------------------|
|------5h8-4-----5-----------6------5h8-4-----6h9---7h10---5h8---|
|--0-0-------0-0---0-0---0-0----0-0-------0-0-----0------0-------|

Gtr2 (3:07-3:14)
|-----------------------------------------------------------|
|-----------------------------------------------------------| 
|-----------------------------------------------------------|  
|-------------------------------------------7-----6---------|x2  
|----5h8-4-----5-----8-----6------5h8-4-----------------8---|    
|--00-------0-0---0-0---0-0----0-0-------0-0---0-0---0-0----|   
    (3:15-3:23) 
|----------------------------------------------------------------|
|----------------------------------------------------------------|
|----------------------------------------------------------------|x2
|----------------------------------------------------------------|
|------5h8-4-----5-----8-----6------5h8-4-----6h9---7h10---5h8---|
|--0-0-------0-0---0-0---0-0----0-0-------0-0-----0------0-------|
   * *       * *   * *   * *    * *       * *     *      *

Gtrs 1&2   (3:24-3:33)
|---------------------------------------|
|---------------------------------------|
|---------------------------------------|
|--0~----------0~-----------------------|
|--0~----------0~-----------------------|
|--0~----------0~---------3-1-0-4-3-1---|

Gtr1  (3:34-3:37)
|--------------------------------------------------------|
|--------------------------------------------------------|
|--------------------------------------------------------|
|--0---------------------------------------3-1-0-4-3-1---|
|--0-----5h8---4-----5h8---11-----5h8------3-1-0-4-3-1---|
|--0-0-0-----0---0-0-----0----0-0-----0-0--3-1-0-4-3-1---|
     * *     *   * *     *    * *     * *


Gtr2  (3:34-3:37)
|-----------------------------------------|--------------|
|-----------------------------------------|--------------|
|-----------------------------------------|--------------|
|-----------------------------------------|3-1-0-4-3-1---|
|-----------------------------------------|3-1-0-4-3-1---|
|-----------------------------------------|3-1-0-4-3-1---|

Gtr1 (3:38-3:57)
|--------------------------------------------------------------------|
|--------------------------------------------------------------------|
|-----------------------------------------8-7-5----------------------|
|--0--------------------------------------------8-7-5----------------|
|--0-----5h8---4-----5h8---11-----5h8-----------------8-7-5--6-5-3---|
|--0-0-0-----0---0-0-----0----0-0-----0-0----------------------------|
     * *     *   * *     *    * *     * *                           
                                                                   
|--------------------------------------------------------|        
|--------------------------------------------------------|       
|--------------------------------------------------------| 
|--0---------------------------------------3-1-0-4-3-1---|     
|--0-----5h8---4-----5h8---11-----5h8------3-1-0-4-3-1---|x2 
|--0-0-0-----0---0-0-----0----0-0-----0-0--3-1-0-4-3-1---| 
     * *     *   * *     *    * *     * *
Gtr2 (3:38-3:57)
|-----------------------------------------5-------------------------|
|-------------------------------------------8-6-5-------------------|
|---------------------------5---------------------7-5---------------|
|--------3h7---2-----3h7----------3h7-----------------7-5-----------|
|--0------------------------------------------------------8-9-8-7---|
|--0-0-0-----0---0-0-----0----0-0-----0-0---------------------------|
     * *     *   * *     *    * *     * *                           
                                                                 
|-------------------------------------------------------|  
|-------------------------------------------------------| 
|-------------------------------------------------------|
|--0-----3h7---2-----3h7---5-----3h7--------------------|
|--0---------------------------- ---------3-1-0-4-3-1---|
|--0-0-0-----0---0-0-----0---0-0-----0-0--3-1-0-4-3-1---|x2

Gtrs 1&2 (4:00-4:14)
|---------------------------------------------------------|
|---------------------------------------------------------|
|--------------------------------------------------[12]---| x2
|--0-3-2-0---0-3-2-0-8-0-0---0-3-2-0---0-3-2-0-8-0--------|
|--0-3-2-0---0-3-2-0-8-0-0---0-3-2-0---0-3-2-0-8-0--------|
|--0-3-2-0---0-3-2-0-8-0-0---0-3-2-0---0-3-2-0-8-0--------|
   * * * *   * * * *   * *   * * * *   * * * *   *

 (4:15-4:16)
|------------|
|------------|
|------------|
|--0-3-2-0---|
|--0-3-2-0---|
|--0-3-2-0---|

thx to Jonathan Casper (confined forever)
and Josh Jackson for being super awsome 
and bring me the horizon for being super awsomer   
Tap to rate this tab
# A B C D E F G H I J K L M N O P Q R S T U V W X Y Z