Song name
# A B C D E F G H I J K L M N O P Q R S T U V W X Y Z

Bring Me The Horizon - The Comedown tab

Tuning - Drop A#
Band - bring me the horizon 
album - suicide season
Track - Number 1

Intro 

                       [LEE] 

|------------------------------------------------------|
|------------------------------------------------------|
|------------------------------------------------------|
|---------000-00000-00---------------------------------|
|--13p12--000-00000-00-13p12--0------------------------|
|---------000-00000-00--------0-101010101313131212-----|
|                                                      |
|                                                      |
|------------------------------------------------------|
|------------------------------------------------------|
|------------------------------------------------------|
|---------000-00000-00---------------------------------|
|--13p12--000-00000-00-13p12--0------------------------|
|---------000-00000-00--------0-101010101313131212-----|

|--------------------------------------------------|
|--------------------------------------------------|
|--------------------------------------------------|
|--10h12p10--0000-000-00--10h12p10---000-0000-00---|
|------------0000-000-00-------------000-0000-00---|
|------------0000-000-00-------------000-0000-00---|
|                                                  |
|                                                  |
|--------------------------------------------------|
|--------------------------------------------------|
|--------------------------------------------------|
|--10h12p10--0000-000-00--10h12p10---000-0000-00---|
|------------0000-000-00-------------000-0000-00---|
|------------0000-000-00-------------000-0000-00---| 

Versh
HERE I AM, ONCE AGAIN, JUST LIKE A PACK OF WOLVES
|-----------------------|
|-----------------------|
|-----------------------|
|-0000000---------------| work the timing out yourself :P
|-0000000----------9b---|
|-0000000----12-0-------|

|----------------------------------------------------------------------|
|----------------------------------------------------------------------|
|----------------------------------------------------------------------|
|--000000000-000000--------------------000000-000--44444444--11111111--|
|--000000000-000000--------------------000000-000--44444444--11111111--|
|--000000000-000000--111111-4444444444-000000-000--44444444--11111111--|

Chorus
TELL ALL MY FRIENDS I SAID GOODBYE , CLENCHED TEETH AND FLUTTERING EYES.
|-----------------------------------6-----------------------|
|--------------------------------10--8-------6---6---6-6b---|
|------------------------------------------10--10--10--10b--|
|--7-8-7-8-5-7-5-7---7-8-7-8--------------------------------| 2#
|-----------------------------------------------------------|
|-----------------------------------------------------------|

Intro[again]
Just like the living dead, YEAH!!. 
|------------------------------------------------------|
|------------------------------------------------------|
|------------------------------------------------------|
|---------000-00000-00---------------------------------|
|--13p12--000-00000-00-13p12--0------------------------|
|---------000-00000-00--------0-101010101313131212-----|
|                                                      |
|                                                      |
|------------------------------------------------------|
|------------------------------------------------------|
|------------------------------------------------------|
|---------000-00000-00---------------------------------|
|--13p12--000-00000-00-13p12--0------------------------|
|---------000-00000-00--------0-101010101313131212-----|

|-------------------------------------------|
|-------------------------------------------|
|-------------------------------------------|
|--------000000000--00000-00----------------|
|-13p12--000000000--00000-00--9[Hormonic]---|
|--------000000000--00000-00----------------|

|-----------------------|
|-----------------------|
|-----------------------|
|-0000000---------------| work the timing out yourself :P
|-0000000----------9b---|
|-0000000----12-0-------|

|----------------------------------------------------------------------|
|----------------------------------------------------------------------|
|----------------------------------------------------------------------|
|--000000000-000000--------------------000000-000--44444444--11111111--|
|--000000000-000000--------------------000000-000--44444444--11111111--|
|--000000000-000000--111111-4444444444-000000-000--44444444--11111111--|
|                                                                      |
|                                                                      |
|----------------------------------------------------------------------|
|-----------|----------------------------------------------------------|
|--8h7h5----|----------------------------------------------------------|
|--8h7h5----|----------1414141414141414141414--------------------------|
|--8h7h5-3--|----------xxxxxxxxxxxxxxxxxxxxxx--------------------------|
|-----------|----------12212121212121212121212-------------------------|
^ not sure on that.

If this tab goes through, ill be posting the breakdown as soon as its posten through, i promise =]
Tap to rate this tab
# A B C D E F G H I J K L M N O P Q R S T U V W X Y Z