Song name
# A B C D E F G H I J K L M N O P Q R S T U V W X Y Z

Bring Me The Horizon - The Sadness Will Never End tab

 
                            The Sadness Will Never End

Artists: Bring Me The Horizon & Sam Carter (of Architects)

Album: Suicide Season (2008)

Transcribed by Saxens

Guitar 1 Drop A# (C,G,D#,A#,F,A#) Left (Lee Malia)
Guitar 2 Drop A# (C,G,D#,A#,F,A#) Right(Curtis Ward/Jona Weinhofen) 
Guitar 3 Drop A# (C,G,D#,A#,F,A#) BackGround (Left & Right)(Untittled)

Legend:

W:     Whole
H:     Half
Q:     Quarter
E:     Eight
|-3-|  n-Tollet
When the letters is on the | from the bar, that's the previous note rings in the new bar.

t:     Tremolo Picking
b:     Bend

|      Bar
|o     Repeat Start
o|     Repeat End

 Q=210

Intro:(0:37/1:05) 

 Guitar 1
  E E E E E E E E   W            
|-----------------|------------------|
|-----------------|------------------|
|-----------------|------------------|
|-2-2-2-2-2-2-2-2-|------------------|
|-2-2-2-2-2-2-2-2-|------------------|
|-2-2-2-2-2-2-2-2-|------------------|
|
|Guitar 2
| E E E E E E E E   W            
|-----------------|------------------|
|-----------------|------------------|
|-----------------|------------------|
|-2-2-2-2-2-2-2-2-|------------------|
|-2-2-2-2-2-2-2-2-|------------------|
|-2-2-2-2-2-2-2-2-|------------------|     

 Guitar 1 
  E E E E E E E E E E E E E E  E  E    E E E E E E E E   E E E E E E E E
|-----------------|------------------|-----------------|-----------------|
|-----------------|------------------|-----------------|-----------------|
|-----------------|------------------|-----------------|-----------------|
|-2-2-2-2-2-2-2-2-|------------------|-----------------|-----------------|
|-2-2-2-2-2-2-2-2-|------------------|-----------------|-----------------|
|-2-2-2-2-2-2-2-2-|-5-5-5-5/10-10-10-|-7-7-7-7-7-9-9-9-|-5-5-5-5-5-9-9-9-|
|
|Guitar 2 
| E E E E E E E E E E E E E E  E  E    E E E E E E E E   E E E E E E E E
|-----------------|------------------|-----------------|-----------------|
|-----------------|------------------|-----------------|-----------------|
|-----------------|------------------|-----------------|-----------------|
|-2-2-2-2-2-2-2-2-|------------------|-----------------|-----------------|
|-2-2-2-2-2-2-2-2-|------------------|-----------------|-----------------|
|-2-2-2-2-2-2-2-2-|-5-5-5-5/10-10-10-|-7-7-7-7-7-9-9-9-|-5-5-5-5-5-9-9-9-|

 Guitar1
  E E E E E E E E E E E E E E  E  E    E E E E E E E E   E E E E    S S S S S S S
|-----------------|------------------|-----------------|-------------------------|
|-----------------|------------------|-----------------|-------------------------|
|-----------------|------------------|-----------------|-------------------------|
|-2-2-2-2-2-2-2-2-|------------------|-----------------|-------------------------|
|-2-2-2-2-2-2-2-2-|------------------|-----------------|------------2-2-2-2-2-2--|
|-2-2-2-2-2-2-2-2-|-5-5-5-5/10-10-10-|-7-7-7-7-7-9-9-9-|-5-5-5-5-5--2-2-2-2-2-2--|
|
|Guitar 2 
| E E E E E E E E E E E E E E  E  E    E E E E E E E E   E E E E    S S S S S S S
|-----------------|------------------|-----------------|-------------------------|
|-----------------|------------------|-----------------|-------------------------|
|-----------------|------------------|-----------------|-------------------------|
|-2-2-2-2-2-2-2-2-|------------------|-----------------|-------------------------|
|-2-2-2-2-2-2-2-2-|------------------|-----------------|------------2-2-2-2-2-2--|
|-2-2-2-2-2-2-2-2-|-5-5-5-5/10-10-10-|-7-7-7-7-7-9-9-9-|-5-5-5-5-5--2-2-2-2-2-2--|



 Guitar 1
  Q Q E E E E E E E E E E E E   Q  Q  E  E  E  E  E E E E E E E E E
|-------------|---------------|-------------------|----------------|
|-------------|---------------|-------------------|----------------|
|-------------|---------------|-------------------|----------------|
|-2-2---2---2-|---------------|-10-10----10----10-|----------------|
|-2-2-2-2-2-2-|---------------|-10-10-10-10-10-10-|----------------|
|-2-2-2-2-2-2-|-5-5-5-5/9-9-9-|-10-10-10-10-10-10-|-7-7-7-7-9-9-9--|
|
|Guitar2
| Q Q E E E E E E E E E E E E   Q  Q  E  E  E  E  E E  E  E  E  E  E  E  E
|-------------|---------------|-------------------|-------------------------|
|-------------|---------------|-------------------|-------------------------|
|-------------|---------------|----------16-16-16-|-16-14-14-14-12-12-12-12-|
|-2-2---2---2-|---------------|-10-10-----x--x--x-|--x--x--x--x--x--x--x--x-|
|-2-2-2-2-2-2-|---------------|-10-10-10-14-14-14-|-14-12-12-12-10-10-10-10-|
|-2-2-2-2-2-2-|-5-5-5-5/9-9-9-|-10-10-10----------|-------------------------|
 
  Q Q E E E E E E  E  E  Q. E
|-------------|-19-------------|
|-------------|----20----------|
|-------------|-------19-------|
|-2-2---2---2-|----------16-17-|
|-2-2-2-2-2-2-|----------------|
|-2-2-2-2-2-2-|----------------|
|
| Q Q E E E E E E  E  E  Q. E
|-------------|-19-------------|
|-------------|----20----------|
|-------------|-------19-------|
|-2-2---2---2-|----------16-17-|
|-2-2-2-2-2-2-|----------------|
|-2-2-2-2-2-2-|----------------|

 |------3-------| |------3-------| |------3-------| |------3-------|
    H   H    H      H    H    H      H    H    H      H    H    H
|----------------|----------------|----------------|----------------|
|----------------|----------------|----------------|----------------|
|----------------|----------------|----------------|----------------|
|------------9~--|-----------(9)--|----------------|----------------|
|-------10~------|------(10)------|------------9~--|-----------(9)--|
|--10~-----------|--(10-----------|---9~--12~------|------(12)------|
|
||------3-------| |------3-------| |------3-------| |------3-------|
|    H   H    H      H    H    H      H    H    H      H    H    H
|----------------|----------------|----------------|----------------|
|----------------|----------------|----------------|----------------|
|----------------|----------------|----------------|----------------|
|------------9~--|-----------(9)--|----------------|----------------|
|-------10~------|------(10)------|------------9~--|-----------(9)--|
|--10~-----------|--(10-----------|---9~--12~------|------(12)------|

Pre-Verse: (1:05/1:15)
 
 Guitar 1
  W   W   W   W   W   W    W   W
|---|---|---|---|---|----|---|----|
|---|---|---|---|---|----|---|----|
|-9-|-7-|-4-|-5-|---|----|---|----|
|-9-|-7-|-4-|-5-|-7-|-10-|-7-|-12-|
|-7-|-5-|-2-|-3-|-7-|-10-|-7-|-12-|
|---|---|---|---|-7-|-10-|-7-|-12-|
| 
|Guitar 2
| W   W   W   W   W   W    W   W
|---|---|---|---|---|----|---|----|
|---|---|---|---|---|----|---|----|
|---|---|---|---|---|----|---|----|
|---|---|---|---|---|----|---|----|
|---|---|---|---|---|----|---|----|
|---|---|---|---|---|----|---|----|

Verse 1: 2x (1:15/1:29)(Only the 4 first bar the second time)

 Guitar 1
   E      E       E       E       E       E       E       E 
|-------|-------|-------|-------|-------|-------|-------|-------|
|o------|-------|-------|-------|-------|-------|-------|------o|
|--9----|-7-----|-4-----|-5-----|-------|-------|-------|-------|
|--9(x8)|-7(x8)-|-4(x8)-|-5(x8)-|-------|-------|-------|-------|
|o-7----|-5-----|-2-----|-3-----|-------|-------|-------|------o|
|-------|-------|-------|-------|-7(x8)-|-10(x8)|-7(x8)-|-12(x8)|
|
|Guitar 2
|  E      E       E       E       E       E       E       E 
|-------|-------|-------|-------|-------|-------|-------|-------|
|o------|-------|-------|-------|-------|-------|-------|------o|
|--9----|-7-----|-4-----|-5-----|-------|-------|-------|-------|
|--9(x8)|-7(x8)-|-4(x8)-|-5(x8)-|-------|-------|-------|-------|
|o-7----|-5-----|-2-----|-3-----|-------|-------|-------|------o|
|-------|-------|-------|-------|-7(x8)-|-10(x8)|-7(x8)-|-12(x8)|
|
|Guitar 3
| Q  Q. Q Q Q Q. Q  Q Q  Q.Q  Q Q Q. Q  Q E       E       E       E 
|-19-15---|---19-15-|-19-15---|---19-15-|-------|-------|-------|--------|
|o-----19-|-15------|------19-|-15------|-17(x8)|-15(x8)|-17(x8)|-19(x8)o|
|---------|---------|---------|---------|-------|-------|-------|--------|
|---------|---------|---------|---------|-------|-------|-------|--------|
|o--------|---------|---------|---------|-------|-------|-------|-------o|
|---------|---------|---------|---------|-------|-------|-------|--------|

Pre-chorus: (1:29/1:34)

 Guitar 1
  Q Q E E E E   E E  E  E  E  E  E  E    Q Q E E E E   E  E  E  E  E  E  E  E
|-------------|------------------------|-------------|-----------------------|
|-------------|------------------------|-------------|-----------------------|
|-------------|------------------------|-------------|-12-12-12-12-11-11-11--|
|-2-2---2---2-|------------------------|-2-2---2---2-|--x--x--x--x--x--x--x--|
|-2-2-2-2-2-2-|------------------------|-2-2-2-2-2-2-|-10-10-10-10--9--9--9--|
|-2-2-2-2-2-2-|-2/10-10-10-10-10-10-10-|-2-2-2-2-2-2-|-----------------------|
|
|Guitar 2
| Q Q E E E E   W                        Q Q E E E E   E  E  E  E  E  E  E  E
|-------------|------------------------|-------------|-----------------------|
|-------------|------------------------|-------------|-----------------------|
|-------------|------------------------|-------------|-12-12-12-12-11-11-11--|
|-2-2---2---2-|------------------------|-2-2---2---2-|--x--x--x--x--x--x--x--|
|-2-2-2-2-2-2-|------------------------|-2-2-2-2-2-2-|-10-10-10-10--9--9--9--|
|-2-2-2-2-2-2-|------------------------|-2-2-2-2-2-2-|-----------------------

Chorus: (1:34/1:55)

 Guitar 1
   E E E E E E E E E E E E E E  E  E    E E E E E E E E   E E E E E E E E
|------------------|------------------|-----------------|-------------------||
|o-----------------|------------------|-----------------|------------------o||
|------------------|------------------|-----------------|-------------------||
|--2-2-2-2-2-2-2-2-|------------------|-----------------|-------------------||
|o-2-2-2-2-2-2-2-2-|------------------|-----------------|------------------o||
|--2-2-2-2-2-2-2-2-|-5-5-5-5/10-10-10-|-7-7-7-7-7-9-9-9-|-5-5-5-5-5-9-9-9---||
|
|Guitar 2
|  E E E E E E E E E E E E E E  E  E    E E E E E E E E   E E E E E E E E
|------------------|------------------|-----------------|-------------------||
|o-----------------|------------------|-----------------|------------------o||
|------------------|------------------|-----------------|-------------------||
|--2-2-2-2-2-2-2-2-|------------------|-----------------|-------------------||
|o-2-2-2-2-2-2-2-2-|------------------|-----------------|------------------o||
|--2-2-2-2-2-2-2-2-|-5-5-5-5/10-10-10-|-7-7-7-7-7-9-9-9-|-5-5-5-5-5-9-9-9---||

 Guitar 1
  Q Q E E E E    W      W      W     Q Q E E E E    W      W      W
|-------------|------|------|------|-------------|------|------|------|
|-------------|------|------|------|-------------|------|------|------|
|-------------|--12--|-(12)-|-(12)-|-------------|--12--|-(12)-|-(12)-|
|-2-2---2---2-|---x--|--(x)-|--(x)-|-2-2---2---2-|---x--|--(x)-|--(x)-|
|-2-2-2-2-2-2-|--10--|-(10)-|-(10)-|-2-2-2-2-2-2-|--10--|-(10)-|-(10)-|
|-2-2-2-2-2-2-|------|------|------|-2-2-2-2-2-2-|------|------|------|
|
|Guitar2
| Q Q E E E E    W      W      W     Q Q E E E E    W      W      W
|-------------|------|------|------|-------------|------|------|------|
|-------------|------|------|------|-------------|------|------|------|
|-------------|--12--|-(12)-|-(12)-|-------------|--12--|-(12)-|-(12)-|
|-2-2---2---2-|---x--|--(x)-|--(x)-|-2-2---2---2-|---x--|--(x)-|--(x)-|
|-2-2-2-2-2-2-|--10--|-(10)-|-(10)-|-2-2-2-2-2-2-|--10--|-(10)-|-(10)-|
|-2-2-2-2-2-2-|------|------|------|-2-2-2-2-2-2-|------|------|------|

 Guitar 1
  Q Q E E E E   W
|-------------|-------------|
|-------------|-------------|
|-------------|-------------|
|-2-2---2---2-|-------------|
|-2-2-2-2-2-2-|-------------|
|-2-2-2-2-2-2-|-------------|
|
|Guitar 2
| Q Q E E E E   W
|-------------|-------------|
|-------------|-------------|
|-------------|-------------|
|-2-2---2---2-|-------------|
|-2-2-2-2-2-2-|-------------|
|-2-2-2-2-2-2-|-------------|

Verse 2: x2 (1:55/2:09) (Only the 4 first bars the second time)

 Guitar 1
   E      E       E       E       E       E       E       E
|-------|-------|-------|-------|-------|-------|-------|-------|
|o------|-------|-------|-------|-------|-------|-------|------o|
|--9----|-7-----|-4-----|-5-----|-------|-------|-------|-------|
|--9(x8)|-7(x8)-|-4(x8)-|-5(x8)-|-------|-------|-------|-------|
|o-7----|-5-----|-2-----|-3-----|-------|-------|-------|------o|
|-------|-------|-------|-------|-7(x8)-|-10(x8)|-7(x8)-|-12(x8)|
|
|Guitar 2
|  E      E       E       E       E       E       E       E
|-------|-------|-------|-------|-------|-------|-------|-------|
|o------|-------|-------|-------|-------|-------|-------|------o|
|--9----|-7-----|-4-----|-5-----|-------|-------|-------|-------|
|--9(x8)|-7(x8)-|-4(x8)-|-5(x8)-|-------|-------|-------|-------|
|o-7----|-5-----|-2-----|-3-----|-------|-------|-------|------o|
|-------|-------|-------|-------|-7(x8)-|-10(x8)|-7(x8)-|-12(x8)|
|
|Guitar 3
|  E      E       E       E       E       E       E       E
|-19(x8)|-19(x8)|-------|-22(x8)|-15(x8)|-15(x8)|-14(x8)|-17(x8)|
|o------|-------|-22(x8)|-------|-------|-------|-------|------o|
|-------|-------|-------|-------|-------|-------|-------|-------|
|-------|-------|-------|-------|-------|-------|-------|-------|
|o------|-------|-------|-------|-------|-------|-------|------o|
|-------|-------|-------|-------|-------|-------|-------|-------|

Pre-Chorus: (2:09/2:14)

 Guitar 1
 Q Q E E E E   E E  E  E  E  E  E  E    Q Q E E E E   E  E  E  E  E  E  E  E
|-------------|------------------------|-------------|-----------------------|
|-------------|------------------------|-------------|-----------------------|
|-------------|------------------------|-------------|-12-12-12-12-11-11-11--|
|-2-2---2---2-|------------------------|-2-2---2---2-|-----------------------|
|-2-2-2-2-2-2-|------------------------|-2-2-2-2-2-2-|-10-10-10-10--9--9--9--|
|-2-2-2-2-2-2-|-2/10-10-10-10-10-10-10-|-2-2-2-2-2-2-|-----------------------|
|
|Guitar 2 
| Q Q E E E E   E E  E  E  E  E  E  E    Q Q E E E E   E  E  E  E  E  E  E  E
|-------------|------------------------|-------------|-----------------------|
|-------------|------------------------|-------------|-----------------------|
|-------------|------------------------|-------------|-12-12-12-12-11-11-11--|
|-2-2---2---2-|------------------------|-2-2---2---2-|-----------------------|
|-2-2-2-2-2-2-|------------------------|-2-2-2-2-2-2-|-10-10-10-10--9--9--9--|
|-2-2-2-2-2-2-|------------------------|-2-2-2-2-2-2-|-----------------------|

Chorus: 2x (2:14/2:33)

 Guitar 1                                 |--3--| |--3--| |---3---||---3---|
   Q  Q  E  E  E  E    Q  Q  E  E  E  E    H H H   H H H   H H H    H  H  H 
|--------------------|-------------------|-------|-------|--------|---------|
|o-------------------|-------------------|-------|-------|--------|--------o|
|--------------------|-------------------|-------|-------|--------|---------|
|--14-14----14----14-|-12-12----12----12-|-----9-|----(9)|------9-|------(9)|
|o-14-14-14-14-14-14-|-12-12-12-12-12-12-|---9---|--(9)--|---10---|---(10)-o|
|--14-14-14-14-14-14-|-12-12-12-12-12-12-|-9-----|(9)----|-10-----|-(10)----|
|
|Guitar 2                                 |--3--| |--3--| |---3---||---3---|
|  Q  Q  E  E  E  E    Q  Q  E  E  E  E    H H H   H H H   H H H    H  H  H 
|--------------------|-------------------|-------|-------|--------|---------|
|o-------------------|-------------------|-------|-------|--------|--------o|
|--------------------|-------------------|-------|-------|--------|---------|
|--14-14----14----14-|-12-12----12----12-|-----9-|----(9)|------9-|------(9)|
|o-14-14-14-14-14-14-|-12-12-12-12-12-12-|---9---|--(9)--|---10---|---(10)-o|
|--14-14-14-14-14-14-|-12-12-12-12-12-12-|-9-----|(9)----|-10-----|-(10)----|
|
|Guitar 3
| Q  Q. Q  Q Q  Q. Q  Q Q  Q. Q  Q Q  Q. Q  Q E       E       E       E 
|-19-15----|----19-15-|-19-15----|----19-15-|-15(x8)|-15(x8)|-14(x8)|-17(x8)|
|o------19-|-15-------|-------19-|-15-------|-------|-------|-------|------o|
|----------|----------|----------|----------|-------|-------|-------|-------|
|----------|----------|----------|----------|-------|-------|-------|-------|
|o---------|----------|----------|----------|-------|-------|-------|------o|
|----------|----------|----------|----------|-------|-------|-------|-------|   
Post-Chorus: (2:33/2:52)
 Guitar 1
   E        E        E        E       E        E       E     
|---------|--------|--------|----------------|---------------|
|o--------|--------|--------|----------------|---------------|
|---------|--------|--------|----------------|---------------|
|--10-----|-10-----|-10-----|-10------12-----|-12------2-----|
|o-10(x8)-|-10(x8)-|-10(x8)-|-10(x4)--12(x4)-|-12(x4)--2(x4)-|
|--10-----|-10-----|-10-----|-10------12-----|-12------2-----|
|
|Guitar 2
|  E        E        E        E       E        E       E     
|---------|--------|--------|----------------|---------------|
|o--------|--------|--------|----------------|---------------|
|---------|--------|--------|----------------|---------------|
|--10-----|-10-----|-10-----|-10------12-----|-12------2-----|
|o-10(x8)-|-10(x8)-|-10(x8)-|-10(x4)--12(x4)-|-12(x4)--2(x4)-|
|--10-----|-10-----|-10-----|-10------12-----|-12------2-----|
|
|Guitar 3
|  E        E        E        E       E        E       E     
|--19t----|-19t----|-19t----|-19t-----19bt---|-19tb----19t---|
|o--------|--------|--------|----------------|---------------|
|---------|--------|--------|----------------|---------------|
|---------|--------|--------|----------------|---------------|
|o--------|--------|--------|----------------|---------------|
|---------|--------|--------|----------------|---------------|    

 Guitar 1
   E       E       E       E      E         
|--------|-------|-------|--------------|
|--------|-------|-------|-------------o|
|--------|-------|-------|-12----11-----|
|--2-----|-2-----|-2-----|--x(x4)-x(x4)-|
|--2(x8)-|-2(x8)-|-2(x8)-|-10-----9----o|
|--2-----|-2-----|-2-----|--------------|
|
|Guitar 2
|  E       E       E       E      E     
|--------|-------|-------|--------------|
|--------|-------|-------|-------------o|
|--------|-------|-------|-12----11-----|
|--2-----|-2-----|-2-----|--x(x4)-x(x4)-|
|--2(x8)-|-2(x8)-|-2(x8)-|-10-----9----o|
|--2-----|-2-----|-2-----|--------------|
|
|Guitar 3
|   W        W      W       Q   Q   Q   E   E    
|--19t---|--19t--|-19t---|-17t-15t-14t-15t-14t-|
|--------|-------|-------|--------------------o|
|--------|-------|-------|---------------------|
|--------|-------|-------|---------------------|
|--------|-------|-------|--------------------o|
|--------|-------|-------|---------------------|

Bridge: x2 (2:52/3:11)

 Guitar 1
    E        E         E       E       E      E 
|---------|---------|----------------|---------------|
|o--------|---------|----------------|--------------o|
|---------|---------|----------------|--------17(x6)-|
|--17(x8)-|--17(x8)-|--17(x4) 16(x4)-|-16(x2)--------|
|o--------|---------|----------------|--------------o|
|---------|---------|----------------|---------------|
|
|Guitar 2
|   E        E         E       E       E      E 
|---------|---------|----------------|---------------|
|o--------|---------|----------------|--------------o|
|---------|---------|----------------|--------17(x6)-|
|--17(x8)-|--17(x8)-|--17(x4) 16(x4)-|-16(x2)--------|
|o--------|---------|----------------|--------------o|
|---------|---------|----------------|---------------|

Pre-chorus: (3:11/3:16)

 Guitar 1
  E E E E E E E E E E E E E E  E  E    E E E E E E E E   E E E E E E E E    
|-----------------|------------------|-----------------|-----------------|
|-----------------|------------------|-----------------|-----------------|
|-----------------|------------------|-----------------|-----------------|
|-2-2-2-2-2-2-2-2-|------------------|-----------------|-----------------|
|-2-2-2-2-2-2-2-2-|------------------|-----------------|-----------------|
|-2-2-2-2-2-2-2-2-|-5-5-5-5/10-10-10-|-7-7-7-7-7-9-9-9-|-5-5-5-5-5-9-9-9-|
|
|Guitar 2
| W                 W                  W                 W 
|-----------------|------------------|-----------------|-----------------|
|-----------------|------------------|-----------------|-----------------|
|-----------------|------------------|-----------------|-----------------|
|-----------------|------------------|-----------------|-----------------|
|-----------------|------------------|-----------------|-----------------|
|-----------------|------------------|-----------------|-----------------|

Chorus: (3:16/3:35)

 Guitar 1
   E E E E E E E E E E E E E E  E  E    E E E E E E E E   E E E E E E E E
|------------------|------------------|-----------------|------------------|
|o-----------------|------------------|-----------------|-----------------o|
|------------------|------------------|-----------------|------------------|
|--2-2-2-2-2-2-2-2-|------------------|-----------------|------------------|
|o-2-2-2-2-2-2-2-2-|------------------|-----------------|-----------------o|
|--2-2-2-2-2-2-2-2-|-5-5-5-5/10-10-10-|-7-7-7-7-7-9-9-9-|-5-5-5-5-5-9-9-9--|
|
|Guitar 2
|  E E E E E E E E E E E E E E  E  E    E E E E E E E E   E E E E E E E E
|------------------|------------------|-----------------|------------------|
|o-----------------|------------------|-----------------|-----------------o|
|------------------|------------------|-----------------|------------------|
|--2-2-2-2-2-2-2-2-|------------------|-----------------|------------------|
|o-2-2-2-2-2-2-2-2-|------------------|-----------------|-----------------o|
|--2-2-2-2-2-2-2-2-|-5-5-5-5/10-10-10-|-7-7-7-7-7-9-9-9-|-5-5-5-5-5-9-9-9--|

 Guitar 1
  Q Q E E E E E E E E E E E E   Q  Q  E  E  E  E  E E E E E E E E E
|-------------|---------------|-------------------|----------------|
|-------------|---------------|-------------------|----------------|
|-------------|---------------|-------------------|----------------|
|-2-2---2---2-|---------------|-10-10----10----10-|----------------|
|-2-2-2-2-2-2-|---------------|-10-10-10-10-10-10-|----------------|
|-2-2-2-2-2-2-|-5-5-5-5/9-9-9-|-10-10-10-10-10-10-|-7-7-7-7-9-9-9--|
|
|Guitar2
| Q Q E E E E E E E E E E E E   Q  Q  E  E  E  E  E E  E  E  E  E  E  E  E
|-------------|---------------|-------------------|-------------------------|
|-------------|---------------|-------------------|-------------------------|
|-------------|---------------|----------16-16-16-|-16-14-14-14-12-12-12-12-|
|-2-2---2---2-|---------------|-10-10-----x--x--x-|--x--x--x--x--x--x--x--x-|
|-2-2-2-2-2-2-|---------------|-10-10-10-14-14-14-|-14-12-12-12-10-10-10-10-|
|-2-2-2-2-2-2-|-5-5-5-5/9-9-9-|-10-10-10----------|-------------------------|

Break: (3:35/3:57)

 Guitar 1
  W      W     W     W     W     W     W     W
|-----|-----|-----|-----|-----|-----|-----|-----|
|-----|-----|-----|-----|-----|-----|-----|-----|
|-----|-----|-----|-----|-----|-----|-----|-----|
|--2--|-(2)-|-(2)-|-(2)-|-----|-----|-----|-----|
|--2--|-(2)-|-(2)-|-(2)-|-----|-----|-----|-----|
|--2--|-(2)-|-(2)-|-(2)-|-----|-----|-----|-----|
|
|Guitar 2
|  W     W     W     W     W     W     W     W
|-----|-----|-----|-----|-----|-----|-----|-----|
|-----|-----|-----|-----|-----|-----|-----|-----|
|-----|-----|-----|-----|-----|-----|-----|-----|
|--2--|-(2)-|-(2)-|-(2)-|-----|-----|-----|-----|
|--2--|-(2)-|-(2)-|-(2)-|-----|-----|-----|-----|
|--2--|-(2)-|-(2)-|-(2)-|-----|-----|-----|-----|
| 
| Guitar 3
|   W      W      W    H  H 
|------|------|-----|--------|
|o-----|------|-----|-------o|
|--12--|-(12)-|--9--|--------|
|--10--|-(10)-|--7--|-15-16--|
|o-10--|-(10)-|--7--|-13-14-o|
|--10--|-(10)-|--7--|-13-14--|

 Guitar 1
  H   Q   E   E  
|-----------------|
|-----------------|
|-----------------|
|-----------------|
|-----------------|
|-14t-10t-7t-13t--|
|
|Guitar 2
| H   Q   E   E  
|-----------------|
|-----------------|
|-----------------|
|-----------------|
|-----------------|
|-14t-10t-7t-13t--|

Pre-Chorus: (3:57/4:08)

 Guitar 1
  Q Q  E  E  E  E     E E E E  E  E  E  E   Q  Q   E  E  E  E   E E E E  E  E  E  E 
|-------------------|---------------------|-------------------|---------------------|
|o------------------|---------------------|-------------------|---------------------|
|-------12-12-12-12-|---------12-12-12-12-|-------9--9--9--9--|---------9--9--9--9--|
|-------15-15-15-15-|-2-2-2-2-15-15-15-15-|-------12-12-12-12-|-2-2-2-2-12-12-12-12-|
|o------------------|-2-2-2-2-------------|-------------------|-2-2-2-2-------------|
|-14-14-------------|-2-2-2-2-------------|-10-10-------------|-2-2-2-2-------------|
|                                         |
|               This Bars 2x              |
|                                         |
|Guitar 2                                 |
| W                   W                   | W                   W
|-------------------|---------------------|-------------------|--------------------|
|-------------------|---------------------|-------------------|--------------------|
|-------------------|---------------------|-------------------|--------------------|
|-------------------|---------------------|-------------------|--------------------|
|-------------------|---------------------|-------------------|--------------------|
|-------------------|---------------------|-------------------|--------------------|

 Guitar 1
  H   Q   Q 
|------------|
|-----------o|
|------------|
|------------|
|-----------o|
|-14t-10t-7t-|
|
|Guitar 2
| H   Q   Q
|------------|
|-----------o|
|------------|
|------------|
|-----------o|
|-14t-10t-7t-|

Chorus: 2x (4:08/4:31)

 Guitar 1
 Q  Q  E  E  E  E    E E E E  E  E  E  E | Q  Q  E  E  E  E    E E E E E  E  E  E 
|-------------------|---------------------|-------------------|---------------------|
|o------------------|---------------------|-------------------|---------------------|
|-------12-12-12-12-|---------12-12-12-12-|-------9--9--9--9--|---------9--9--9--9--|
|-------15-15-15-15-|-2-2-2-2-15-15-15-15-|-------12-12-12-12-|-2-2-2-2-12-12-12-12-|
|o------------------|-2-2-2-2-------------|-------------------|-2-2-2-2-------------|
|-14-14-------------|-2-2-2-2-------------|-10-10-------------|-2-2-2-2-------------|
|                                         |
|               This Bars 2x              |
|                                         |
|Guitar 2                                 |
| Q  Q  E  E  E  E    E E E E  E  E  E  E | Q  Q  E  E  E  E    E E E E E  E  E  E 
|-------------------|---------------------|-------------------|---------------------|
|o------------------|---------------------|-------------------|---------------------|
|-------12-12-12-12-|---------12-12-12-12-|-------9--9--9--9--|---------9--9--9--9--|
|-------15-15-15-15-|-2-2-2-2-15-15-15-15-|-------12-12-12-12-|-2-2-2-2-12-12-12-12-|
|o------------------|-2-2-2-2-------------|-------------------|-2-2-2-2-------------|
|-14-14-------------|-2-2-2-2-------------|-10-10-------------|-2-2-2-2-------------|

 Guitar 1
  H   Q   Q 
|------------|
|-----------o|
|------------|
|------------|
|-----------o|
|-14t-10t-7t-|
|
|Guitar 2
| H   Q   Q
|------------|
|-----------o|
|------------|
|------------|
|-----------o|
|-14t-10t-7t-|

Solo: (4:31/4:54)
 
 Guitar 1
   W     W     W    H   H
|-----|-----|-----|---------|
|o----|-----|-----|--------o|
|-----|-----|-----|---------|
|-----|-----|-----|---------|
|o----|-----|-----|--------o|
|-14t-|-14t-|-10t-|-7t-13t--|
|
|Guitar 2
|   W     W     W    H   H
|-----|-----|-----|---------|
|o----|-----|-----|--------o|
|-----|-----|-----|---------|
|-----|-----|-----|---------|
|o----|-----|-----|--------o|
|-14t-|-14t-|-10t-|-7t-13t--|
|
|Guitar 3
|-----------------|
|--I cannot hear--|
|----the solo-----|
|---completely----|
|-----------------|
|-----------------|

Final Chorus/Outro: (4:54/5:22)

 Guitar 1
 Q  Q  E  E  E  E    E E E E  E  E  E  E | Q  Q  E  E  E  E    E E E E E  E  E  E 
|-------------------|---------------------|-------------------|---------------------|
|o------------------|---------------------|-------------------|---------------------|
|-------12-12-12-12-|---------12-12-12-12-|-------9--9--9--9--|---------9--9--9--9--|
|-------15-15-15-15-|-2-2-2-2-15-15-15-15-|-------12-12-12-12-|-2-2-2-2-12-12-12-12-|
|o------------------|-2-2-2-2-------------|-------------------|-2-2-2-2-------------|
|-14-14-------------|-2-2-2-2-------------|-10-10-------------|-2-2-2-2-------------|
|                                         |
|               This Bars 2x              |
|                                         |
|Guitar 2                                 |
| Q  Q  E  E  E  E    E E E E  E  E  E  E | Q  Q  E  E  E  E    E E E E E  E  E  E 
|-------------------|---------------------|-------------------|---------------------|
|o------------------|---------------------|-------------------|---------------------|
|-------12-12-12-12-|---------12-12-12-12-|-------9--9--9--9--|---------9--9--9--9--|
|-------15-15-15-15-|-2-2-2-2-15-15-15-15-|-------12-12-12-12-|-2-2-2-2-12-12-12-12-|
|o------------------|-2-2-2-2-------------|-------------------|-2-2-2-2-------------|
|-14-14-------------|-2-2-2-2-------------|-10-10-------------|-2-2-2-2-------------|

 Guitar 1
  H   Q   Q 
|------------|
|-----------o|
|------------|
|------------|
|-----------o|
|-14t-10t-7t-|
|
|Guitar 2
| H   Q   Q
|------------|
|-----------o|
|------------|
|------------|
|-----------o|
|-14t-10t-7t-|

 Guitar 1
  Q  Q  E  E  E  E    E E E E H  
|-------------------|-----------|
|-------------------|-----------|
|-------12-12-12-12-|-----------|
|-------15-15-15-15-|-2-2-2-2---|
|-------------------|-2-2-2-2---|
|-14-14-------------|-2-2-2-2---|
|
|Guitar 2
|  Q  Q  E  E  E  E    E E E E H  
|-------------------|-----------|
|-------------------|-----------|
|-------12-12-12-12-|-----------|
|-------15-15-15-15-|-2-2-2-2---|
|-------------------|-2-2-2-2---|
|-14-14-------------|-2-2-2-2---|

Tap to rate this tab
# A B C D E F G H I J K L M N O P Q R S T U V W X Y Z