Song name
# A B C D E F G H I J K L M N O P Q R S T U V W X Y Z

Bring Me The Horizon - I Used To Make Out With Medusa tab

This is my own interpretation of the solo, it might not be 100% right but it sounds great





Main Solo

C#|---------------------------------------------------------------------------|
G#|-15h17-16-(17)-(17)-16-------------18-17----20-----------------------------|
E#|-15h17-----------------17----17h19-------17----17/13-----------------------|
B|----------------------------------------------------------------------------|
f#|---------------------------------------------------------------------------|
B|----------------------------------------------------------------------------|

|---------------------------------------------------------------------------|
|-18h17h15-17p15-14h15p14-12h14p14----14p12---------------------------------|
|----------------------------------15-------14h15p14-12h14-12-10-12p10------|
|---------------------------------------------------------------------------|
|---------------------------------------------------------------------------|
|---------------------------------------------------------------------------|

|---------------------------------------------------------------------------|
|---------------------------------------------------------------------------|
|----10---------------------------------------------------------------------|
|-13----13-12-13-12-10-12p10------------------------------------------------|
|----------------------------13--12T-5h8-12T-5h8-5...-----------------------|
|---------------------------------------------------------------------------|

|-17T-13p10-4X--18T-13p10-2X-17T-13p10-2X-----------------------------------|
|---------------------------------------------------------------------------|
|---------------------------------------------------------------------------|
|---------------------------------------------------------------------------|
|---------------------------------------------------------------------------|
|---------------------------------------------------------------------------|

|-17T-12p9-4X-18T-12p9-2X--17T-12p9-2X--------------------------------------|
|---------------------------------------------------------------------------|
|---------------------------------------------------------------------------|
|---------------------------------------------------------------------------|
|---------------------------------------------------------------------------|
|---------------------------------------------------------------------------|

|----------------12-13-15-13-12-12h13p12---------17-15----15----------------|
|-15----15-15-15-------------------------13------------18----17-------------|
|---------------------------------------------------------------------------|
|---------------------------------------------------------------------------|
|---------------------------------------------------------------------------|
|---------------------------------------------------------------------------|
Sweep Picked Arpeggio's

|------13h17p13----------13h18p13----------13-20-18p17-18p17----17----------|
|---15----------15----15----------15----15-------------------20----20-18-2X-|
|-14---------------14----------------14-------------------------------------|
|---------------------------------------------------------------------------|
|---------------------------------------------------------------------------|
|---------------------------------------------------------------------------|

|---------------------------------------------------------------------------|
|-15-(16)-(16)-(17)---------------------------------------------------------|
|---------------------------------------------------------------------------|
|---------------------------------------------------------------------------|
|---------------------------------------------------------------------------|
|---------------------------------------------------------------------------|


Second solo



|-------------------------------------9-12----------------------------------|
|--------------------------11------11---------------------------------------|
|-14------------------9-12----9-12--------------14--------------------------|
|---15-----------8-12-----------------------------15------------------------|
|------17-12-----------------------------------------17-12------------------|
|---------------------------------------------------------------------------|

Sweep Picked

|-17p13---------13-17p13----------------------------------------------------|
|------15----15----------15-------------------------------------------------|
|---------14----------------14----------------------------------------------|
|---------------------------------------------------------------------------|
|---------------------------------------------------------------------------|
|---------------------------------------------------------------------------|


|-------------------------------------9-12----------------------------------|
|--------------------------11------11---------------------------------------|
|-14------------------9-12----9-12--------------14--------------------------|
|---15-----------8-12-----------------------------15------------------------|
|------17-12-----------------------------------------17-12------------------|
|---------------------------------------------------------------------------|

Very fast sweep pick

|-----13-17p13----18p13-----------------------------------------------------|
|---15---------15-------15--------------------------------------------------|
|-14-----------------------14-----------------------------------------------|
|---------------------------------------------------------------------------|
|---------------------------------------------------------------------------|
|---------------------------------------------------------------------------|

| T  tap
|(16)bend
| /  slide up
| \  slide down
| h  hammer-on
| p  pull-off
| ~  vibrato
| +  harmonic
| x  Mute note
===============================================================================
Tap to rate this tab
# A B C D E F G H I J K L M N O P Q R S T U V W X Y Z