Song name
# A B C D E F G H I J K L M N O P Q R S T U V W X Y Z

Bring Me The Horizon - Shed Light tab

0:02
|-------------------|
|-------------------|
|-0-77-5-10-8-7-5-7-|
|-------------------|
|-------------------|
|-------------------|

every second time
|-------------------|
|-------------------|
|-0-77-5-7-8-10-8-7-|
|-------------------|
|-------------------|
|-------------------|

0:45
|-00-------00---0---0---00-------00-------00---|
|----7-7h8----8---7---5----5-5h7----7-7h8----7-|
|----------------------------------------------|  X3
|----------------------------------------------|
|----------------------------------------------|
|----------------------------------------------|
  **       **   *   *   **       **       **

1:02
|-0000000000-0000000000-0000000000--------|
|----------------------------------7--5-4-|
|----------------------------------9--7-6-|  X2
|-----------------------------------------|
|-----------------------------------------|
|-----------------------------------------|
  ********** ********** **********

1:11
|-00-------00---0---0---00-------00-------00---|
|----------------------------------------------|
|----7-7h8----8---7---5----5-5h7----7-7h8----7-|  X2
|----------------------------------------------|
|----------------------------------------------|
|----------------------------------------------|
  **       **   *   *   **       **       **

1:22
Slowed down
|-00-------00-----0-----0---00-------00-------0-----|
|----7-7h8----8h7---7h5---5----5-5h7----7-7h8---8-7-|
|---------------------------------------------------|
|---------------------------------------------------|
|---------------------------------------------------|
|---------------------------------------------------|

1:45
|-000000----000000----000000----000000----|
|-----------------------------------------|
|-----------------------------------------|
|-----------------------------------------|
|-----------------------------------------|
|-----------------------------------------|

1:55
|-0000000000-0000000000-0000000000-----|
|--------------------------------------|
|----------------------------------7-7-|
|-----------------------------------8--|
|--------------------------------------|
|--------------------------------------|
  ********** ********** **********

|-0000000000-0000000000-0000000000-----------------|
|--------------------------------------------------|
|----------------------------------121110987654321-|
|--------------------------------------------------|
|--------------------------------------------------|
|--------------------------------------------------|
  ********** ********** **********

|-0000000000-0000000000-0000000000-----------------|
|--------------------------------------------------|
|--------------------------------------------------|
|----------------------------------123456789101112-|
|--------------------------------------------------|
|--------------------------------------------------|
  ********** ********** **********

|-0000000000-0000000000-0000000000-------|
|----------------------------------------|
|----------------------------------------|
|----------------------------------<12*>-|
|----------------------------------------|
|----------------------------------------|
  ********** ********** **********

2:14
|-------------------------------|
|-------------------------------|
|-------------------------------|
|-10-9-10-12-10-9-10-9-7-9-7-5--|
|-------------------------------|
|-------------------------------|

|-------------------------------|
|-------------------------------|
|-------------------------------|
|-10-9-10-12-10-9-10-9-7-9-7-5--|
|-------------------------------|
|-------------------------------|

|---------------------------------------------|
|---------------------------------------------|
|---------------------------------------------|
|-10-9-10-12-10-9-10-9-7-9-7-5-7-5-5-4-5-4-2--|
|---------------------------------------------|
|---------------------------------------------|


I haven't figured out the solo yet...

2:55
|--000-0-0-0--000-000-0-0-0--|
|----------------------------|
|----------------------------|
|----------------------------|
|----------------------------|
|----------------------------|
   *** * * *  *** *** * * *
3:12
|------------------------------------|
|------------------------------------|
|------------------------------------|
|-10-9-10-12-10-9-10-9-7-9-7-5-7~----|
|------------------------------------|
|------------------------------------|

THE END :D
Tap to rate this tab
 
# A B C D E F G H I J K L M N O P Q R S T U V W X Y Z