Bring Me The Horizon - The Sadness Will Never End tab

-------------------------------------------------------------------------------
THE SADNESS WILL NEVER END - Bring Me The Horizon
-------------------------------------------------------------------------------
Tuning: Drop C

Here's my tab of The Sadness Will Never End, I couldn't find any in Drop C, so I tried 
it out myself.
I've only tabbed the one guitar btw. Enjoy!

Intro
D|--------------------------------------------------------------------|
A|--------------------------------------------------------------------|
F|--------------------------------------------------------------------|
C|-00000000---00000000------------------------------------------------|
G|-00000000---00000000------------------------------------------------|
C|-00000000---00000000--3-3-3-3/8-8-8-8-5-5-5-5-7-7-7-7-3-3-3-3-7-7-7-|

D|---------------------------------------------------------|
A|---------------------------------------------------------|
F|---------------------------------------------------------|
C|-00000000------------------------------------------------|
G|-00000000----------------------------------------000000--|
C|-00000000-3-3-3-3/8-8-8-8-5-5-5-5-7-7-7-7-3-3-3--000000--|

D|---------------------------------------------------------------------|
A|---------------------------------------------------------------------|
F|---------------------------------14-14-14-14-12-12-12-12-10-10-10----| x2
C|-0-0---0---0---------------8-8----x--x--x--x--x--x--x--x--x--x--x----|
G|-0-0-0-0-0-0---------------8-8-8-12-12-12-12-10-10-10-10--8--8--8----|
C|-0-0-0-0-0-0-3-3-3-3/7-7-7-8-8-8-------------------------------------|

D|-------------17--------------------------------------------------------|
A|---------------18------------------------------------------------------|
F|-----------------17--------------------------7~-5~----------------5~---|
C|-0-0---0---0-------14-15-------7~------------7~-5~-7~-8~-5~-8~-5~-5~---|
G|-0-0-0-0-0-0-----------------8----------7~---5~-3~-7~-8~-5~-8~-5~-3~---|
C|-0-0-0-0-0-0---------------8-------7-10------------7~-8~-5~-8~-5~------|

Verse
D|---------------------------------------------------------------------|
A|---------------------------------------------------------------------|
F|-77777777-55555555---------------------------------------------------|
C|-77777777-55555555-77777777-88888888---------------------------------|
G|-55555555-33333333-77777777-88888888---------------------------------|
C|-------------------77777777-88888888-5-5-5-5-5-5-5-5-5/8-8-8-8-8-8-8-|

D|-----------------------------------------------------------|
A|-----------------------------------------------------------|
F|----------------------77777777-55555555--------------------|
C|----------------------77777777-55555555-77777777-88888888--|
G|----------------------55555555-33333333-77777777-88888888--|
C|-5-5-5-5-5-5-5-5-5/10-------------------77777777-88888888--|

D|----------------------------------------------------------------|
A|----------------------------------------------------------------|
F|------------------------------------------10-10-10-10-9-9-9-----|
C|-0-0---0---0-----------------0-0---0---0---x--x--x--x-x-x-x-----|
G|-0-0-0-0-0-0-----------------0-0-0-0-0-0---8--8--8--8-7-7-7-----|
C|-0-0-0-0-0-0-0/8-8-8-8-8-8-8-0-0-0-0-0-0------------------------|

Chorus 1
D|-------------------------------------------------------|
A|-------------------------------------------------------|
F|-------------------------------------------------------| x2
C|-00000000----------------------------------------------|
G|-00000000----------------------------------------------|
C|-00000000-3-3-3-3/8-8-8-8-5-5-5-5-7-7-7-7-3-3-3-7-7-7--|

D|-------------------------------------------------|
A|-------------------------------------------------|
F|-------------10~-------------10~-----------------|
C|-0-0---0---0--x~-0-0---0---0--x~-0-0---0---0-----|
G|-0-0-0-0-0-0--8~-0-0-0-0-0-0--8~-0-0-0-0-0-0-----|
C|-0-0-0-0-0-0-----0-0-0-0-0-0-----0-0-0-0-0-0-----|

Repeat verse

Chorus 2
D|--------------------------------------------------------|
A|--------------------------------------------------------|
F|-7777-777--7777777-5555-555-5555555---------------------| x2
C|-7777-777--7777777-5555-555-5555555------7~--------7~---|
G|-5555-555--5555555-3333-333-3333333----7---------8------|
C|-------------------------------------7-------7-8--------|

Post-chorus
D|----------------------------------------------------------------------------------|
A|----------------------------------------------------------------------------------|
F|--------------------------------------------------------------10-10-10-10-9-9-9-9-|x2
C|---------------------------------------------------------------x--x--x--x-x-x-x-x-|
G|-888888888888888888888-1010101010101010-0000000000000000000000-8--8--8--8-7-7-7-7-|
C|-888888888888888888888-1010101010101010-0000000000000000000000--------------------|

Bridge
D|---------------------------------------------------------------------------|
A|---------------------------------------------------------------------------|
F|-------------------------------------------------------151515151515--------| x4
C|-1515151515151515151515151515151515151515-141414141414---------------------|
G|---------------------------------------------------------------------------|
C|---------------------------------------------------------------------------|

Chorus 3
D|--------------------------------------------------------|
A|--------------------------------------------------------|
F|--------------------------------------------------------| x3
C|-00000000-----------------------------------------------|
G|-00000000-----------------------------------------------|
C|-00000000-3-3-3-3/8-8-8-8-5-5-5-5-7-7-7-7-3-3-3-3-7-7-7-|

D|---------------------------------------------------------------------|
A|---------------------------------------------------------------------|
F|---------------------------------14-14-14-14-12-12-12-12-10-10-10----| x2
C|-0-0---0---0---------------8-8----x--x--x--x--x--x--x--x--x--x--x----|
G|-0-0-0-0-0-0---------------8-8-8-12-12-12-12-10-10-10-10--8--8--8----|
C|-0-0-0-0-0-0-3-3-3-3/7-7-7-8-8-8-------------------------------------|

Break
D|-----|---------------------|
A|-----|---------------------|
F|-----|-----------------(x4)| (3rd and 4th times tremolo strum)
C|-----|--5~----------4------|
G|-3~--|--3~----6~--3-2------|
C|-3~--|--------6~--3--------|

Pre-chorus
D|------------------------------------------------------------------------------|
A|------------------------------------------------------------------------------|
F|-------10-10-10-10----------10-10-10-10-------10-10-10-10---------10-10-10-10-|
C|-------13-13-13-13----------13-13-13-13-------13-13-13-13---------13-13-13-13-|
G|-------------------00000000-------------------------------000-000-------------|
C|-12-12-------------00000000-------------12-12-------------000-000-------------|
PM                   ........                               ... ...

D|--------------------------------------------------|
A|--------------------------------------------------|
F|-----7--7--7--7------7--7--7--7-------------------|
C|-----10-10-10-10-----10-10-10-10----------4t------|
G|-----------------000--------------6t---3t-2t------|
C|-8-8-------------000--------------6t---3t---------|
                   ...
Chorus 4
D|------------------------------------------------------------------------------|
A|------------------------------------------------------------------------------|
F|-------10-10-10-10----------10-10-10-10-------10-10-10-10---------10-10-10-10-|
C|-------13-13-13-13----------13-13-13-13-------13-13-13-13---------13-13-13-13-|
G|-------------------00000000-------------------------------000-000-------------|
C|-12-12-------------00000000-------------12-12-------------000-000-------------|
PM                   ........                               ... ...

D|--------------------------------------------------|
A|--------------------------------------------------|
F|-----7--7--7--7------7--7--7--7-------------------|
C|-----10-10-10-10-----10-10-10-10----------4t------|
G|-----------------000--------------6t---3t-2t------|
C|-8-8-------------000--------------6t---3t---------|
                   ...

D|------------------------------------------------------------------------------|
A|------------------------------------------------------------------------------|
F|-------10-10-10-10----------10-10-10-10-------10-10-10-10---------10-10-10-10-|
C|-------13-13-13-13----------13-13-13-13-------13-13-13-13---------13-13-13-13-|
G|-------------------00000000-------------------------------000-000-------------|
C|-12-12-------------00000000-------------12-12-------------000-000-------------|
PM                   ........                               ... ...

D|-----------------------------------|
A|-----------------------------------|
F|-----7--7--7--7------7--7--7--7----|
C|-----10-10-10-10-----10-10-10-10---|
G|-----------------000---------------|
C|-8-8-------------000---------------|
                   ...
Solo part
D|-------------------------|-------------|
A|-------------------------|-------------|
F|--------------------(x4)-|-------------|
C|----------4t--5t---------|----------4t-|
G|-6t----3t-2t--3t---------|-6t----3t-2t-|
C|-6t----3t----------------|-6t----3t----|

Repeat chorus 4

Outro
D|--------------------------------------------|
A|--------------------------------------------|
F|---------------------10-10-10-10------------|
C|----------4t---------13-13-13-13------------|
G|-6t----3t-2t---------------------00000000---|
C|-6t----3t------12-12-------------00000000---|
PM                                 ........
Tap to rate this tab
 
# A B C D E F G H I J K L M N O P Q R S T U V W X Y Z