Song name
# A B C D E F G H I J K L M N O P Q R S T U V W X Y Z

Bring Me The Horizon - I Used To Make Out With Medusa tab

I found this completly by ear there may be some part that are wrong but im 100%
But don't take my word for it try it yourself
Hopefully its all correct and you all like it [=


Intro just listen to the song to find the palm mutes they should be triple gallops each time
|-----------------------------------------------------------|
|-----------------------------------------------------------|
|-----------------------------------------------------------|
|--7------------------------7-------------------------------|
|----10-8-9----4h5--8p7-------10-8-9--------5h8-----7h10----|
|---------------------------------------5-7-----7-9---------|
                                        * *     * *
Second ending to intro
|---------------------------------------------|
|---------------------------------------------|
|---------------------------------------------|
|----------------5-7-7h8----------------------|
|---------5-7-8-------------------------------|
|---5-7---------------------------------------|
    * *   * * *  * * *

|---------------------------------------------|
|---------------------------------------------|
|------------------------8h11-----------------|
|-8/5/7---------6h9-7h10----------------------|
|-6/3/5-----5h8-------------------------------|
|---------------------------------------------|
 {-----}
   2x

Here's my favorite part to play =D
|-------------------------------------------------\15--|
|-----------8-7-------8-7-----------------10-13--------|
|--8----9-------8---------8----------8-11--------------|
|----10-----------10--------10--7-10-------------------|
|------------------------------------------------------|
|------------------------------------------------------|

lots of palm mutes THEN hit the harmonics but listen to the song to perfect it and 
there are palm mutes between each power chord
|-----------------------------|--3*---3*---4*------|
|8/7--7/8--5/5--6/7-----------|1----2----3---------|
|6/5--5/6--3/7--8/5-----------|1----2----3---------|
|-----------------------------|1----2----3---------|


SIKE                          Eventually play this after a while
                              just listen to the song for repitition
|----------------------------|--7h10p7h10--6h9p6h9-------------|
|0-3-2-1--000----------------|---------------------------------|
|0-3-2-1--000----------------|---------------------------------|
|0-3-2-1--000----------------|---------------------------------|
 * * * *  *** 
                        
                    
Tap to rate this tab
 
# A B C D E F G H I J K L M N O P Q R S T U V W X Y Z