Song name
# A B C D E F G H I J K L M N O P Q R S T U V W X Y Z

Bring Me The Horizon - Fuck tab

F*ck by bring me the horizon - awesome song , not 100% sure about it if im honest but 
of it is right :D
Its only really the main guitar so have fun :)
done this by looking at covers and by ear, so give me some credit!
I have tabbed the solo seperatly so check it out :D!

oh ! and other people get tabbing songs from this amazing album :D!


Main riff thing - not 100% certain about it but i think it sounds okay! its not the 
amount of 0's but you get the idea.

D|----------------------------------------------------------------------------------|
A|----------------------------------------------------------------------------------|
F|----------------------------------------------------------------------------------|
C|-------------------------------------1--3--1--3--4-----------4-4-4-4-10-12*-10-13*|
G|-------------------------------------1--3--1--3--4-----------4-4-4-4-10-12*-10-13*|
C|0-0-0-0-0-4-0-0-0-0-0-8h12-0-0-0-0-0-1--3--1-----4-0-0-0-0-0-4-4-4-4-10-12*-10-13*|    
*- strum

D|-----------------------------------------------------------------------------|
A|-----------------------------------------------------------------------------|
F|-----------------------------------------------------------------------------|
C|-------------------------------------1--4--1--3--4--------4-4-4-4-4---8*-----|
G|-------------------------------------1--4--1--3--4--------4-4-4-4-4---8*-----|  *-strum
C|0-0-0-0-0-4-0-0-0-0-0-11-0-0-0-0-0---1--4--1--3--4--0-0-0-4-4-4-4-4---8*-----|

(00:16)

How do you say goodbye'....

D|-----------------------------------------------------------------------------------------|
A|-----------------------------------------------------------------------------------------|
F|-----------------------------------------------------------------------------------------|
C|---8*--7*---10--12*--10--13*--1--3--1--3--4--10--12*--10--13*--1--4--1--3--4-8*--7*--0~~~|
G|---8*--7*---10--12*--10--13*--1--3--1--3--4--10--12*--10--13*--1--4--1--3--4-8*--7*--0~~~|
C|---8*--7*---10--12*--10--13*--1--3--1-----4--10--12*--10--13*--1--4--1--3--4-8*--7*--0~~~|

 (00:32)

This part starts on 34 seconds-

You do this multiple times listen to the song you'll get it.

D|----------------------------------------------------------------|
A|----------------------------------------------------------------|
F|----------------------------------------------------------------|
C|1--4--1--3--4----------1--3--1--3--4----------------------------|
G|1--4--1--3--4---0~-----1--3--1--3--4----------------------------|
C|1--4--1-----4---0~-----1--3--1-----4----------------------------|

(00:54)


Ohhh BreakDown <3

D|--------|-----|
A|--------|-----|
F|--------|-----|
C|5*------|-----|      *- pinch harmonic
G|--------|-----|
C|-----0--|--13~|        Not going to tab the rythm, again listen to the song you'll get it

(01:10)


This is the awesome part before the solo, which i have tabbed seperatly so please check 
out:)


D|---------------------------------------------------------------|
A|---------------------------------------------------------------|
F|---------------------------------------------------------------|
C|1~~~-----4~~-----3~~---------0-----4----3----0-----------------|
G|1~~~-----4~~-----3~~---------0-----4----3----0-----------------|
C|1~~~-----4~~-----3~~---------0-----4----3----0-----------------|


The last '0' ive seen people play it as '1' but i think this sounds way better :)

Now the good part :D!

D|---------------------------------------------------------------|
A|---------------------------------------------------------------|
F|---------------------------------------------------------------|
C|0----4----3----0---------------0----4----3----0----------------|
G|0----4----3----0---------------0----4----3----0-----11-11-11br-|
C|0----4----3----0------12#~~----0----4----3----0----------------|

D|---------------------------------------------------------------|
A|---------------------------------------------------------------|
F|---------------------------------------------------------------|
C|0----4----3----0-----------------------------------------------|
G|0----4----3----0------11-11-11-12-12-12-8-8-8------------------|
C|0----4----3----0-----------------------------------------------|  X2


You do the following once then the solo, if not you do it twice :)

D|---------------------------------------------------------------|
A|---------------------------------------------------------------|
F|---------------------------------------------------------------|
C|0----4----3----0------0~~~-------0----4----3----0-------6-6-6b-|
G|0----4----3----0------0~~~-------0----4----3----0-------6-6-6b-|
C|0----4----3----0------0~~~-------0----4----3----0-------6-6-6b-|


D|---------------------------------------------------------------|
A|---------------------------------------------------------------|
F|---------------------------------------------------------------|
C|0----4----3----0-------6-6-6-7-7-7-3-3-3-----------------------|
G|0----4----3----0-------6-6-6-7-7-7-3-3-3-----------------------|
C|0----4----3----0-------6-6-6-7-7-7-3-3-3-----------------------|

(01:41)-if your doing solo..... (01:49) if your not

At 1:52 you start the main riff, just like at the start.

(2:52) how do you say goodbye when you've hardly said hello !

D|---------------------------------------------------------------|
A|---------------------------------------------------------------|
F|---------------------------------------------------------------|
C|----7-7-7-7----8-8-8-8-----------------------------------------|
G|----7-7-7-7----8-8-8-8-----------------------------------------|
C|----7-7-7-7----8-8-8-8-----------------------------------------|

Goes all quite till (3:13) then this comes in

Do the following 4 times , last 3 times let the chords almost 'ring out'

D|---------------------------------------------------------------------------------|
A|---------------------------------------------------------------------------------|
F|---------------------------------------------------------------------------------|
C|12-12-12---12-12-12----15-15-15-15-----8-8-8-8-8-8-----7-7-7-7-7-7---------------|
G|12-12-12---12-12-12----15-15-15-15-----8-8-8-8-8-8-----7-7-7-7-7-7---------------|
C|12-12-12---12-12-12----15-15-15-15-----8-8-8-8-8-8-----7-7-7-7-7-7---------------|


Last bit :D! (4:12)


D|---------------------------------------------------------------|
A|---------------------------------------------------------------|
F|---------------------------------------------------------------|
C|-12-12-12-12-12-12---8-8-8-8---12-12-12------8~~---------------|
G|-12-12-12-12-12-12---8-8-8-8---12-12-12------8~~---------------|
C|-12-12-12-12-12-12---8-8-8-8---12-12-12------8~~---------------| x2


if you have anyproblems with it, or some suggestions, please email me on - coco1888@hotmail.co.uk
Thanks and have fun with it XD

*I may update or change soon*
Tap to rate this tab
 
# A B C D E F G H I J K L M N O P Q R S T U V W X Y Z