Song name
# A B C D E F G H I J K L M N O P Q R S T U V W X Y Z

Bring Me The Horizon - Dont Go tab

Only Chorus and bridge.
Tuning: Drop C

Chorus

|--------------------------------------------|
|--------------------------------------------|
|--------------------------------------------|
|-0-0-0-0-0-0-0-0-0-0---8-8-8-8-7-7-7-7------|
|-0-0-0-0-0-0-0-0-0-0---8-8-8-8-7-7-7-7------|
|-0-0-0-0-0-0-0-0-0-0---8-8-8-8-7-7-7-7------|

Bridge

|------------------------------------------------------|
|------------------------------------------------------|
|-9/10/9/10/9---------------9/10/9/10/9----------------|
|-x/x-/x/x-/x-0h10101010----x/x-/x/x-/x-0h88888--------|
|-7/8-/7/8-/7-0h10101010----7/8-/7/8-/7-0h88888--------|
|-------------0h10101010----------------0h88888--------|
Tap to rate this tab
 
# A B C D E F G H I J K L M N O P Q R S T U V W X Y Z