Song name
# A B C D E F G H I J K L M N O P Q R S T U V W X Y Z

Bring Me The Horizon - Memorial tab

Tuning: Drop C

|--------------------------------------------|
|--------------------------------------------|
|--------------------------------------------|
|-12--10---12--10-----10/7-----12--10--------|
|-----------------12------------------12-----|
|--------------------------------------------|

Ends with:

|--------------|
|-----10-------|
|-----14-------|
|--------------|
|--------------|
|--------------|

That's All!!!
Tap to rate this tab
 
# A B C D E F G H I J K L M N O P Q R S T U V W X Y Z