Bring Me The Horizon - Dont Go tab

Artist: Bring Me The Horizon
Song: Donít Go
Album: There Is A Hell Believe Me I've Seen It. There Is A Heaven Let's Keep It A Secret (2010)
tabbed by: necriononguitar
e-mail (No freakin SPAM!): tim.rathgen@gmx.de

REAL FANS SUPPORT BANDS BY PURCHASING THEIR CDS!!!

. = Palm-Muted
~ = hold note
^ = vibrate
p = pull off
h = hammer on
/ = slide up
\ = slide down
* = harmonic


Tuning: Drop C (and/or Standard)


So yeah, the song is incredible. And its also great when played acoustic!
So try it on an acoustic guitar.
Oh and these are just the mayor RIFFS u need to know. If u are looking for
Chronologic order, please check out my chords tab fort he song (on my
profile)
Aaaand...Enjoy!


Part I     Acoustic/Clean Guitar (I used Standard tuning cause the low C
           string just annoys me when playing the bar chords...)
Part II    Distortion!!!


---Part I---

Intro (Violin):
E-----------------------------------------------------------------------|
B-----------------------------------------------------------------------|
G--------------------12^-------------------12^------12^---------10^-----|
D---13^--10^-----10^---------13^---12^-----10^-----------13^----12^-----|
A-----------------------------------------------------------------------|
E-----------------------------------------------------------------------|
(Continues throughout the verse...)


Intro II/Verse (Guitar):
    Cm
E-----------------------------------------------|
B------4------4------4-------4----3h4-----------|
G---5----5------5------5--------------5---------|
D----------5------5------5-----5--------5-------|
A---3-------------------------------------------|
E-----------------------------------------------|

    G#                      Gm
E-------------------------------------6--------------|
B------4-------4---------------3-4-------3-----------|
G---5----5-------5---5------3------3----------3------|
D----------6-------6------------------------5--------|
A----------------------------------------------------|
E---4-----------------------3------------------------|


Interlude:  at e.g. 1:06
    Cm      Bb G#             Gm
E--------------------------------------------------------------------------|
B---8~---8--6--4----4/6--4----3~------8~---8--6--4----4/6--4-----11~--13~--|
G---8~---8--7--5----5/7--5----3~------8~---8--7--5----5/7--5-----12~--12~--|
D--------------------------------------------------------------------------|
A--------------------------------------------------------------------------|
E--------------------------------------------------------------------------|


(Now theres basically just the verse and interlude clean guitar til the
 chorus which is distorted)


Chorus (Distortion, Drop C needed!)    at 1:50
E-----------------------------------|
B-----------------------------------|
G-----------------------------------|
D---12~----0~--------8~----7~-------| x2
A---12~----0~--------8~----7~-------|
E---12~----0~--------8~----7~-------|


Verse II (Lights)
Please check my chords tab! The guitar is kind of the same but the just one difference 
in the chords
 which u can easily look up on the chords. The pattern stays the same!


Bridge: (ĄTell me that u need me cuz I love u so much...ď)    2:50
No Guitar
Maybe the verse guitar in a higher register... Like this:
E-----------------------------------------------------------|
B------16--------16--------16--------16-----15h16-----------|
G---------17--------17--------17------------------17--------|
D---17-------17--------17--------17-----17-----------17-----|
A-----------------------------------------------------------|
E-----------------------------------------------------------|


?Metal? Interlude at 3:05    (Heavy, Please!)
Guitar 1
E-------------------------------------------------|
B-------------------------------------------------|
G---9/10\9/10-9\7--5~-----9/10\9/10-9\7--3~-------|
D---x/x-\x/x--x\x--x~-----x/x-\x/x--x\x--x~-------|
A---7/8-\7/8--7\5--3~-----7/8-\7/8--7\5--1~-------|
E-------------------------------------------------|

Guitar 2
E-----------------------------------------------------------|
B-----------------------------------------------------------|
G-----------------------------------------------------------|
D---12-12-12-12-12-12--10~-----12-12-12-12-12-12--8~--------|
A---12-12-12-12-12-12--10~-----12-12-12-12-12-12--8~--------|
E---12-12-12-12-12-12--10~-----12-12-12-12-12-12--8~--------|



Outro effect-high-cool-sweap-picking-thing: (No im not that childish!)

So yeah, get some reverb and chorus effects or whatever and fast-pick each one for quite 
a bit. (Im
 only writing down the notes ONCE!)
Oh fuck it. Here u go!

1 and 2
E---------------------------13-13-------12-12-13-13--------|
B---15-15-15-15-15-15-15-15-------15-15--------------------|
G----------------------------------------------------------|
D----------------------------------------------------------| x2
A----------------------------------------------------------|
E----------------------------------------------------------|

3
E-----------------------------------------------------------|
B-----------------------------------------------------------|
G---15-15-15-15-15-15-15-15-15-15-15-15-15-15-15-15---------|
D-----------------------------------------------------------|
A-----------------------------------------------------------|
E-----------------------------------------------------------|

4 (1st time playing)
E---15-15-15-15-15-15-15-15--------------------------------|
B---------------------------13-13-13-13-13-13-13-13--------|
G----------------------------------------------------------|
D----------------------------------------------------------|
A----------------------------------------------------------|
E----------------------------------------------------------|

4 (2nd time playing)
E---15-15-15-15-15-15-15-15-17-17-17-17-17-17-17-17--------|
B----------------------------------------------------------|
G----------------------------------------------------------|
D----------------------------------------------------------|
A----------------------------------------------------------|
E----------------------------------------------------------|



...and thatís it! I hope u enjoyed, please rate and comment!

Cheers...
Tap to rate this tab
 
# A B C D E F G H I J K L M N O P Q R S T U V W X Y Z