Song name
# A B C D E F G H I J K L M N O P Q R S T U V W X Y Z

Bring Me The Horizon - Fuck tab

Artist: Bring Me The Horizon
Song: Fuck
Album: There Is A Hell Believe Me I've Seen It. There Is A Heaven Let's Keep It A Secret (2010)
tabbed by: necriononguitar
e-mail (No freakin SPAM!): tim.rathgen@gmx.de

REAL FANS SUPPORT BANDS BY PURCHASING THEIR CDS!!!

. = Palm-Muted
~ = hold note
^ = vibrate
p = pull off
h = hammer on
/ = slide up
\ = slide down
* = harmonic


Tuning: Drop C

These are just the basics, the line u should be playing to cover the song :D
2nd best song on the record!
BMTH!!!


0:00
E-------------------------------------------------------------------------|
B-------------------------------------------------------------------------|
G-------------------------------------------------------------------------|
D-------------------------------------------------------------------------|
A---0--0---0-0-3---0-0----0-0-0-6--0---0-0---13-13--13---13-13-13---------|
E---0--0---0-0-3---0-0----0-0-0-6--0---0-0---13-13--13---13-13-13---------|

E--------------------------------------------------------------------------------|
B--------------------------------------------------------------------------------|
G--------------------------------------------------------------------------------|
D--------------------------------------------------------------------------------|
A--0--0---0-0-4--4-4--4-4-4--10/12--12-12--12-12-12---10/13--13-13--13-13-13-----|
E--0--0---0-0-4--4-4--4-4-4--10/12--12-12--12-12-12---10/13--13-13--13-13-13-----|

E-------------------------------------------------------------------------|
B-------------------------------------------------------------------------|
G-------------------------------------------------------------------------|
D-------------------------------------------------------------------------|
A---0--0---0-0-3---0-0----0-0-0-6--0---0-0---13-13--13---13-13-13---------|
E---0--0---0-0-3---0-0----0-0-0-6--0---0-0---13-13--13---13-13-13---------|

E---------------------------------------------|
B---------------------------------------------|
G---------------------------------------------|
D---------------------------------------------|
A---0--0---0-0-4---4-4---4-4-4---8-x16--------|
E---0--0---0-0-4---4-4---4-4-4---8------------|



0:16
E-------------------------------------------------------------|
B-------------------------------------------------------------|
G-------------------------------------------------------------|
D-------------------------------------------------------------|
A---8-------7--------10-12--------10-13-----x--1--1--1--------|
E---8-x16---7-x16----10-12-x14----10-13-x7--x--1--1--1--------|

E-------------------------------------------------------------------|
B-------------------------------------------------------------------|
G-------------------------------------------------------------------|
D-------------------------------------------------------------------|
A---10-12--------10-13------1-1--1--1/--8-------7--------0~---------|
E---10-12-x14----10-13-x7---1-1--1--1/--8-x16---7-x16----0~---------|



0:33 (at this point theres also a 2nd guitar playing the C string open quite fast)

                        0:41
E-------------------------------------------------------------5*---------|
B-------------------------------------------------------------5*---------|
G------------------------------------------------------------------------|
D---------1-1-----------------------1-1--------------1-1-----------------|
A-----------------0----0-----------------------------------0-------------|
E---3-1p0---------0----0------3-1p0------------3-1p0-------0-------------|

E---------------------------------------------------------------------------|
B---------------------------------------------------------------------------|
G---------------------------------------------------------------------------|
D---------------------------------------------------------------------pinch-|
A--------------------------------3-3----------------------------------------|
E---0-0-0-0-0-0-0-0-0-0-0-0-00-x-3-3----0-0-0-0-0-0-0-0-0-0-0-0-0-0-0-0-----|


0:55
E-------------------------------------------------------------|
B-------------------------------------------------------------|
G-------------------------------------------------------------|
D-------------------------------------------------------------|
A---0-0-0---------0-0-0----------------0-0-0------------------|
E---0-0-0--0-0----0-0-0--0--0--0--0----0-0-0--0--0--0--0------|
         .    .   .                      .   .    .                                      .
  .    .

E---------------------------------------------------------------|
B---------------------------------------------------------------|
G---------------------------------------------------------------|
D---------------------------------------------------------------|   (play
A---0-0-0---------0-0-0-----------------0-0-0-------------------|    breakdown
E---0-0-0--0-0----0-0-0--0--000--11^----0-0-0--0--000--11^------|     twice)


1:10
E--------------------------------------------|
B--------------------------------------------|
G--------------------------------------------|
D---1~-----4~----3~--------------------------|
A---1~-----4~----3~-----0--3--1--0-----------|
E---1~-----4~----3~-----0--3--1--0-----------|

E-----------------------------------------------------------------------------|
B-----------------------------------------------------------------------------|
G-----------------------------------------------------------------------------|
D---------------------------------/6-6--6b7r6---------------6-6-6-7-7-7-7-----|
A--0-3-1-0----/6^-----0--3-1-0--------------------0-3-1-0-------------------3-|
E--0-3-1-0------------0--3-1-0--------------------0-3-1-0--(6-6-6-7-7-7-7)--3-|



1:34
1
E---------------------------------------------------------------------------|
B---------------------------------------------------------------------------|
G---------------------------------------------------------------------------|
D---------------------------------------------------------------------------|
A---0-3-1-0--0~-----0--3-1-0---6-6-6^----0-3-1-0---6-6-6--7-7-7-7-7--3^-----|
E---0-3-1-0--0~-----0--3-1-0---6-6-6^----0-3-1-0---6-6-6--7-7-7-7-7--3^-----|

2
E---------------------------------------------------------------------------|
B---------------------------------------------------------------------------|
G---------------------------------------------------------------------------|
D---------------------------------------------------------------------------|
A---0-3-1-0--0~-----0--3-1-0---6-6-6^----0-3-1-0---6-6-6--7-7-7-7-7--3^-----|
E---0-3-1-0--0~-----0--3-1-0---6-6-6^----0-3-1-0---6-6-6--7-7-7-7-7--3^-----|


Solo during 2:
High part
E---------------------------------------------------------|
B--------8-6-8^---8b9r8^--6-------------------------------|
G---7^----------------------7-5-7^------------------------|
D------------------------------------7^---(7)slowb8-------|
A---------------------------------------------------------|
E---------------------------------------------------------|

Low part
E----------------------------------------------------------|
B----------------------------------------------------------|
G----------------------------------------------------------|
D---------5-3-5^---5b6or7r5^--3----------------------------|
A----5^-------------------------5-3-5^---------------------|
E----------------------------------------7^---(7)slowb8----|



1:52
E---------------------|
B---------------------|
G---------------------|
D---------1-1---------|
A---------------------|
E---3-1p0-------------|

E-------------------------------------------------------------------------|
B-------------------------------------------------------------------------|
G-------------------------------------------------------------------------|
D-------------------------------------------------------------------------|
A---0--0---0-0-3---0-0----0-0-0-6--0---0-0---13-13--13---13-13-13---------|
E---0--0---0-0-3---0-0----0-0-0-6--0---0-0---13-13--13---13-13-13---------|

E--------------------------------------------------------------------------------|
B--------------------------------------------------------------------------------|
G--------------------------------------------------------------------------------|
D--------------------------------------------------------------------------------|
A--0--0---0-0-4--4-4--4-4-4--10/12--12-12--12-12-12---10/13--13-13--13-13-13-----|
E--0--0---0-0-4--4-4--4-4-4--10/12--12-12--12-12-12---10/13--13-13--13-13-13-----|

E-------------------------------------------------------------------------|
B-------------------------------------------------------------------------|
G-------------------------------------------------------------------------|
D-------------------------------------------------------------------------|
A---0--0---0-0-3---0-0----0-0-0-6--0---0-0---13-13--13---13-13-13---------|
E---0--0---0-0-3---0-0----0-0-0-6--0---0-0---13-13--13---13-13-13---------|

E--------------------------------------------------|
B--------------------------------------------------|
G--------------------------------------------------|
D--------------------------------------------------|
A---0--0---0-0-4---4-4---4-4-4---8-x16---7---------|
E---0--0---0-0-4---4-4---4-4-4---8-------7-x16-----|


2:12
E---------------------------------------------|
B---------------------------------------------|
G---------------------------------------------|
D---------------------------------------------|
A---7--7--7-7--7---7-8--8--8-8--8---8---------|
E---7--7--7-7--7---7-8--8--8-8--8---8---------|

E---------------------------------------------|
B---------------------------------------------|
G---------------------------------------------|
D---------------------------------------------|
A---7--7--7-7--7---7-8--8--8-8--8---8---------|
E---7--7--7-7--7---7-8--8--8-8--8---8---------|


more coming soon. please approve, this is my 130iest tab :D

theres only like 20 secs of the songs missing, all basic
















E-------------------------------------------------------------|
B-------------------------------------------------------------|
G-------------------------------------------------------------|
D-------------------------------------------------------------|
A-------------------------------------------------------------|
E-------------------------------------------------------------|
Tap to rate this tab
 
# A B C D E F G H I J K L M N O P Q R S T U V W X Y Z