Song name
# A B C D E F G H I J K L M N O P Q R S T U V W X Y Z

Bring Me The Horizon - The Sadness Will Never End tab

Artists:Bring Me The Horizon (with Sam Carter) 

Album:Suicide Season

Tuning: Drop C (CGCFAD)

This is my first tab and I'm quite sure that this is right although may not be 
100% correct, but here it is, enjoy!

4:31

Guitar 1
---------------17----20----20b----22-20-22-18-22-17-22--22--22---|
---18----20-------------------------------------------20--18--17-|
-19--1919--1919--1919--1919--------------------------------------|
-----------------------------------------------------------------|
-----------------------------------------------------------------|
-----------------------------------------------------------------|

-18p17p15--------------------------------------------------------|
---------18p17p15-14---------------------------------------------|
--------------------15p14----------------------------------------|
-------------------------17p15p14--------------------------------|
---------------------------------17------------------------------|
-----------------------------------------------------------------|

Guitar 2
-----------------------------------------------------------------|
-----------------------------------------------------------------|
-----------------------------------------------------------------|
-12121212121212121212121212121212-1010101010101010-5555-11111111-|x4
-12121212121212121212121212121212-1010101010101010-5555-11111111-|
-12121212121212121212121212121212-1010101010101010-5555-11111111-|
                                                 (elevens not 1's)     
Tap to rate this tab
 
# A B C D E F G H I J K L M N O P Q R S T U V W X Y Z