Bring Me The Horizon - Fuck tab

Fuck 
                                 
Bring Me The Horizon
~~~~~~~~~~~~~~~~~~~~~~~~~~~~

Notes: Main riff at the beginning is correct; I used my
       vocal remover on my soundcard to remove the vocals
       and tabbed what I heard from the guitar. If you see any
       mistakes please tell me in the comments section. Thanks.

~~~~~~~~~~~~~~~~~~~~~~~~~~~~
Guitar - Drop C tuning
~~~~~~~~~~~~~~~~~~~~~~~~~~~~~ 
                         
     Q    E  E    E  E  E  E  E  E  E  E    
D||------------|---------------------------|
A||------------|---------------------------|
F||------------|---------------------------|
C||----------0-|--L--0--0--0--0--0--0--6h--|
G||----------0-|--L--0--0--0--0--0--0--6h--|
C||----------0-|--L--0--0--0--0--0--0--6h--|


  E  E  E  E  E  E  E   E      E  E  E  E  E  E  E  E   
----------------------------|--------------------------|
----------------------------|--------------------------|
----------------------------|--------------------------|
--L--0--0--0--0--0--0--11h--|--L--0--0--0--0--0--0--0--|
--L--0--0--0--0--0--0--11h--|--L--0--0--0--0--0--0--0--|
--L--0--0--0--0--0--0--11h--|--L--0--0--0--0--0--0--0--|


           v                                        
  E  E  E  Q    Q    E     E  E  E  E  E  E  E  E   
-----------0------------|--------------------------|
-----------0------------|--------------------------|
-----------0------------|--------------------------|
--0--0--0--0----1----0--|--L--0--0--0--0--0--0--4--|
--0--0--0-------1----0--|--L--0--0--0--0--0--0--4--|
--0--0--0-------1----0--|--L--0--0--0--0--0--0--4--|


  E  E  E  E  E  E  E  E      E    E   E   E   E   E   E   E   
--------------------------|-----------------------------------|
--------------------------|-----------------------------------|
--------------------------|-----------------------------------|
--L--4--4--4--4--4--4--4--|--10S--12--12--12--12--12--12--12--|
--L--4--4--4--4--4--4--4--|--10S--12--12--12--12--12--12--12--|
--L--4--4--4--4--4--4--4--|--10S--12--12--12--12--12--12--12--|


   E    E   E   E   E   E   E  E     E  E  E  E  E  E  E  E    
----------------------------------|---------------------------|
----------------------------------|---------------------------|
----------------------------------|---------------------------|
--10S--13--13--13--13--13--13--0--|--L--0--0--0--0--0--0--6h--|
--10S--13--13--13--13--13--13--0--|--L--0--0--0--0--0--0--6h--|
--10S--13--13--13--13--13--13--0--|--L--0--0--0--0--0--0--6h--|


  E  E  E  E  E  E  E   E      E  E  E  E  E  E  E  E   
----------------------------|--------------------------|
----------------------------|--------------------------|
----------------------------|--------------------------|
--L--0--0--0--0--0--0--11h--|--L--0--0--0--0--0--0--0--|
--L--0--0--0--0--0--0--11h--|--L--0--0--0--0--0--0--0--|
--L--0--0--0--0--0--0--11h--|--L--0--0--0--0--0--0--0--|


  E  E  E  Q    Q    E     E  E  E  E  E  E  E  E   
------------------------|--------------------------|
------------------------|--------------------------|
------------------------|--------------------------|
--0--0--0--1----1----0--|--L--0--0--0--0--0--0--4--|
--0--0--0--1----1----0--|--L--0--0--0--0--0--0--4--|
--0--0--0--1----1----0--|--L--0--0--0--0--0--0--4--|


  E  E  E  E  E  E  E  E     E   E  E  E  E  E  E  E   
--------------------------|---------------------------|
--------------------------|---------------------------|
--------------------------|---------------------------|
--L--4--4--4--4--4--4--4--|--4S--8--8--8--8--8--8--8--|
--L--4--4--4--4--4--4--4--|--4S--8--8--8--8--8--8--8--|
--L--4--4--4--4--4--4--4--|--4S--8--8--8--8--8--8--8--|


  E  E  E  E  E  Q.        E  E  E  E  E  E  E  E   
------------------------|--------------------------|
------------------------|--------------------------|
--2--2--2--2--2---------|--2--2--2--2--2--2--2--2--|
--3--3--3--3--3---------|--3--3--3--3--3--3--3--3--|
--1--1--1--1--1---------|--1--1--1--1--1--1--1--1--|
------------------------|--------------------------|


  E  E  E  E  E  E  E  E     E  E  E  E  E  E  E  E   
--------------------------|--------------------------|
--------------------------|--------------------------|
--2--2--2--2--2--2--2--2--|--------------------------|
--3--3--3--3--3--3--3--3--|--7--7--7--7--7--7--7--7--|
--1--1--1--1--1--1--1--1--|--7--7--7--7--7--7--7--7--|
--------------------------|--7--7--7--7--7--7--7--7--|


  E  E  E  E  E  E  E  E     E   E   E   E   E   E   E   E   
--------------------------|---------------------------------|
--------------------------|---------------------------------|
--------------------------|---------------------------------|
--7--7--7--7--7--7--7--0--|--L--12--12--12--12--12--12--12--|
--7--7--7--7--7--7--7--0--|--L--12--12--12--12--12--12--12--|
--7--7--7--7--7--7--7--0--|--L--12--12--12--12--12--12--12--|


   E   E   E   E   E   E   E  E      E    E   E   E   E   E   E   E   
---------------------------------|-----------------------------------|
---------------------------------|-----------------------------------|
---------------------------------|-----------------------------------|
--12--12--12--12--12--12--12--0--|---L--/13--13--13--13--13--13--13--|
--12--12--12--12--12--12--12--0--|---L--/13--13--13--13--13--13--13--|
--12--12--12--12--12--12--12--0--|---L--/13--13--13--13--13--13--13--|


           v                                               
  E  E  E  Q    Q    E     E   E   E   E   E   E   E   E   
-----------0------------|---------------------------------|
-----------0------------|---------------------------------|
-----------0------------|---------------------------------|
--0--0--0--0----1----0--|--L--12--12--12--12--12--12--12--|
--0--0--0-------1----0--|--L--12--12--12--12--12--12--12--|
--0--0--0-------1----0--|--L--12--12--12--12--12--12--12--|


   E   E   E   E   E   E   E  E      E    E   E   E   E   E   E   E   
---------------------------------|-----------------------------------|
---------------------------------|-----------------------------------|
---------------------------------|-----------------------------------|
--12--12--12--12--12--12--12--0--|---L--/13--13--13--13--13--13--13--|
--12--12--12--12--12--12--12--0--|---L--/13--13--13--13--13--13--13--|
--12--12--12--12--12--12--12--0--|---L--/13--13--13--13--13--13--13--|


           v                                        
  E  E  E  Q    Q    E     E  E  E  E  E  E  E  E   
-----------0------------|--------------------------|
-----------0------------|--------------------------|
-----------0------------|--2--2--2--2--2--2--2--2--|
--0--0--0--0----1----0--|--3--3--3--3--3--3--3--3--|
--0--0--0-------1----0--|--1--1--1--1--1--1--1--1--|
--0--0--0-------1----0--|--------------------------|


  E  E  E  E  E  E  E  E     E  E  E  E  E  E  E  E   
--------------------------|--------------------------|
--------------------------|--------------------------|
--2--2--2--2--2--2--2--2--|--------------------------|
--3--3--3--3--3--3--3--3--|--7--7--7--7--7--7--7--7--|
--1--1--1--1--1--1--1--1--|--7--7--7--7--7--7--7--7--|
--------------------------|--7--7--7--7--7--7--7--7--|


  E  E  E  E  E  E  E  E     E  E  E  E  E  E  E  E   
--------------------------|--------------------------|
--------------------------|--------------------------|
--------------------------|--------------------------|
--7--7--7--7--7--7--7--7--|--------------------------|
--7--7--7--7--7--7--7--7--|--------------------------|
--7--7--7--7--7--7--7--7--|--0--0--0--0--0--0--0--0--|


  E  E  E  E  E  E  E  E     E  E  E  E  E  E  E  E   
--------------------------|--------------------------|
--------------------------|--------------------------|
--------------------------|--------------------------|
--------------------------|--------------------------|
--------------------------|--------------------------|
--0--0--0--0--0--0--0--0--|--0--0--0--0--0--0--0--0--|


           v                                     
  E  E  E  Q    Q       E  E  E  E  E  E  E  E   
-----------0---------|--------------------------|
-----------0---------|--------------------------|
-----------0---------|--------------------------|
--0--0--0--0----4----|--------------------------|
--0--0--0-------4----|--------------------------|
--0--0--0-------4----|--0--0--0--0--0--0--0--0--|


  E  E  E  E  E  E  E  E     E  E  E  E  E  E  E  E   
--------------------------|--------------------------|
--------------------------|--------------------------|
--------------------------|--------------------------|
--------------------------|--------------------------|
--------------------------|--------------------------|
--0--0--0--0--0--0--0--0--|--0--0--0--0--0--0--0--0--|


           v                                                    
  E  E  E  Q    Q       E  E  H.              W                 
-----------0---------|---------------------|-------------------|
-----------0---------|---------------------|-------------------|
-----------0---------|---------------------|-------------------|
--0--0--0--0----4----|--0------------------|-------------------|
--0--0--0-------4----|--0------------------|-------------------|
--0--0--0-------4----|--0------------------|-------------------|


                               v                      NH           
  W                   E  E  E  Q    Q       Q    E    E  H         
-------------------|-----------0---------|----------<>4--L--------|
-------------------|-----------0---------|----------<>4--L--------|
-------------------|-----------0---------|----------<>4--L--------|
-------------------|--0--0--0--0----4----|--0----0--<>4--L--------|
-------------------|--0--0--0-------4----|--0----0----------------|
-------------------|--0--0--0-------4----|--0----0----------------|


                                                   v          
  W                   W                   E  E  E  Q    Q     
--L----------------|--L----------------|-----------0---------|
--L----------------|--L----------------|-----------0---------|
--L----------------|--L----------------|-----------0---------|
--L----------------|--L----------------|--0--0--0--0----4----|
-------------------|-------------------|--0--0--0-------4----|
-------------------|-------------------|--0--0--0-------4----|


  Q    E  E  E  E  E  E     E  E  E  E  E  E  E  E   
-------------------------|--------------------------|
-------------------------|--------------------------|
-------------------------|--------------------------|
--0----------------------|--------------------------|
--0----------------------|--------------------------|
--0----0--0--0--0--0--0--|--0--0--0--0--0--0--0--0--|


                                      v          
  E  E  E  E  E  E  E  E     E  E  E  Q    Q     
--------------------------|-----------0---------|
--------------------------|-----------0---------|
--------------------------|-----------0---------|
--------------------------|--0--0--0--0----4----|
--------------------------|--0--0--0-------4----|
--0--0--0--0--0--0--0--0--|--0--0--0-------4----|


  PM                         PM                                   
  E  E  E  E  E  E  E  E     E  E  E  E  E  E  E  E  E  E  E  E   
--------------------------|--------------------------------------|
--------------------------|--------------------------------------|
--------------------------|--------------------------------------|
--------------------------|--------------------------------------|
--------------------------|--------------------------------------|
--0--0-----0-----0--------|--0--0-----0-----0-----0-----0--------|


  PM                   v              PM                       
  E  E  E  E  E  E  E  H        E     E  E  E  E  E  E  E  E   
-----------------------0--------L--|--------------------------|
-----------------------0--------L--|--------------------------|
-----------------------0--------L--|--------------------------|
-----------------------0--------L--|--------------------------|
-----------------------------------|--------------------------|
--0--0-----0-----0-----------------|--0--0-----0-----0--------|


  PM                                   
  E  E  E  E  E  E  E  E  E  E  E  E   
--------------------------------------|
--------------------------------------|
--------------------------------------|
--------------------------------------|
--------------------------------------|
--0--0-----0-----0-----0-----0--------|


  PM                                     PM                       
  E  E  E  E  E  E  E  E  E  E  E  E     E  E  E  E  E  E  E  E   
--------------------------------------|--------------------------|
--------------------------------------|--------------------------|
--------------------------------------|--------------------------|
--------------------------------------|--------------------------|
--------------------------------------|--------------------------|
--0--0-----0-----0-----0-----0--------|--0--0-----0-----0--------|


  PM                                   
  E  E  E  E  E  E  E    E   H         
--------------------------------------|
--------------------------------------|
--------------------------------------|
--------------------------------------|
--------------------------------------|
--0--0-----0-----0-----/13~--L--------|


  PM                                    PM                       
  E  E  E  E  E  E  E  E   H            E  E  E  E  E  E  E  E   
-------------------------------------|--------------------------|
-------------------------------------|--------------------------|
-------------------------------------|--------------------------|
-------------------------------------|--------------------------|
-------------------------------------|--------------------------|
--0--0-----0-----0-----0--13\--------|--0--0-----0-----0--------|


  PM                                   
  E  E  E  E  E  E  E  E  E  E  E  E   
--------------------------------------|
--------------------------------------|
--------------------------------------|
--------------------------------------|
--------------------------------------|
--0--0-----0-----0-----0-----0--------|


  PM                                     PM                       
  E  E  E  E  E  E  E  E  E  E  E  E     E  E  E  E  E  E  E  E   
--------------------------------------|--------------------------|
--------------------------------------|--------------------------|
--------------------------------------|--------------------------|
--------------------------------------|--------------------------|
--------------------------------------|--------------------------|
--0--0-----0-----0-----0-----0--------|--0--0-----0-----0--------|


  PM                                   
  E  E  E  E  E  E  E    E   H         
--------------------------------------|
--------------------------------------|
--------------------------------------|
--------------------------------------|
-----------------------/10~--L--------|
--0--0-----0-----0-----/13~--L--------|


  PM                                                      
  E  E  E  E  E  E  E  E   H            W                 
-------------------------------------|-------------------|
-------------------------------------|-------------------|
-------------------------------------|-------------------|
-------------------------------------|--1----------------|
--------------------------10\--------|--1----------------|
--0--0-----0-----0-----0--13\--------|--1----------------|


  W                   W                   W                 
-------------------|-------------------|-------------------|
-------------------|-------------------|-------------------|
-------------------|-------------------|-------------------|
--L----------------|--4----------------|--L----------------|
--L----------------|--4----------------|--L----------------|
--L----------------|--4----------------|--L----------------|


  W                   W                   Q    Q    Q    Q     
-------------------|-------------------|----------------------|
-------------------|-------------------|----------------------|
-------------------|-------------------|----------------------|
--3----------------|--L----------------|----------------------|
--3----------------|--L----------------|--0----4----3----0----|
--3----------------|--L----------------|--0----4----3----0----|


  W                   Q    Q    Q    Q         H.            Q     
-------------------|----------------------|-----------------------|
-------------------|----------------------|-----------------------|
-------------------|----------------------|-----------------------|
-------------------|----------------------|-----------------------|
-------------------|--0----4----3----0----|------------------0----|
-------------------|--0----4----3----0----|--/13~------------0----|


  Q    Q    Q    Q       Q    Q    Q     Q       Q    Q    Q    Q     
----------------------|-----------------------|----------------------|
----------------------|--2----2----2b----L----|----------------------|
----------------------|-----------------------|----------------------|
----------------------|-----------------------|----------------------|
--L----4----3----0----|-----------------------|--0----4----3----0----|
--L----4----3----0----|-----------------------|--0----4----3----0----|


  Q    Q    Q    Q       Q    Q    Q    Q       Q    Q    Q    Q     
----------------------|----------------------|----------------------|
----------------------|----------------------|----------------------|
--1----1----1----2----|--2----2----2----1----|----------------------|
----------------------|----------------------|--3----3----3----3----|
----------------------|----------------------|----------------------|
----------------------|----------------------|----------------------|


  Q    Q    Q    Q        H.            Q       Q    Q    Q    Q     
----------------------|----------------------|----------------------|
----------------------|----------------------|----------------------|
----------------------|----------------------|----------------------|
----------------------|----------------------|----------------------|
--0----4----3----0----|--/8~------------0----|--L----4----3----0----|
--0----4----3----0----|-----------------0----|--L----4----3----0----|


  Q    Q    Q     Q       Q    Q    Q    Q       Q    Q    Q    Q     
-----------------------|----------------------|----------------------|
--2----2----2b----L----|----------------------|----------------------|
-----------------------|----------------------|--1----1----1----2----|
-----------------------|----------------------|----------------------|
-----------------------|--0----4----3----0----|----------------------|
-----------------------|--0----4----3----0----|----------------------|


  Q    Q    Q    Q       Q    Q    Q    Q       Q    Q    Q    Q     
----------------------|----------------------|----------------------|
----------------------|----------------------|----------------------|
--2----2----2----1----|----------------------|----------------------|
----------------------|--3----3----3----3----|----------------------|
----------------------|----------------------|----------------------|
----------------------|----------------------|--0----4----3----0----|


  H.           Q       Q    Q    Q    Q       Q    Q    Q     Q     
--------------------|----------------------|-----------------------|
--------------------|----------------------|-----------------------|
--------------------|----------------------|-----------------------|
--------------------|----------------------|-----------------------|
--------------------|--L-------------------|-----------------------|
--0------------0----|--L----4----3----0----|--6----6----6b----L----|


  Q    Q    Q    Q       Q    Q    Q    Q       Q    Q    Q    Q     
----------------------|----------------------|----------------------|
----------------------|----------------------|----------------------|
----------------------|----------------------|----------------------|
----------------------|----------------------|----------------------|
----------------------|----------------------|----------------------|
--0----4----3----0----|--6----6----6----7----|--7----7----7----4----|


                          2nd guitar part is in ghost notes. 
  Q    Q    Q    Q        W                                  
----------------------|-------------------------------------|
----------------------|-------------------------------------|
----------------------|---7---------------------------------|
----------------------|-------------------------------------|
----------------------|--(5)--------------------------------|
--3----3----3----3----|-------------------------------------|


  Q     Q      Q       Q         W                 
------------------------------|-------------------|
------------------------------|-------------------|
--L----10------7------12b-----|--L----------------|
------------------------------|-------------------|
--L----(8)----(5)----(10)b----|--L----------------|
------------------------------|-------------------|


    H.              Q         Q      Q      H          
--------------------------|---------------------------|
--------------------------|---------------------------|
---12b-------------10-----|---7------5------7---------|
--------------------------|---------------------------|
--(10)b------------(8)----|--(5)----(3)----(5)--------|
--------------------------|---------------------------|


  H         H            Q     H.               W                 
----------------------|----------------------|-------------------|
----------------------|----------------------|-------------------|
--L---------2---------|--L-------------------|-------------------|
----------------------|--------6-------------|--L----------------|
--L--------(0)--------|--L-------------------|-------------------|
----------------------|-------(6)------------|--L----------------|


  W                   W                   W                 
-------------------|-------------------|-------------------|
-------------------|-------------------|-------------------|
-------------------|-------------------|-------------------|
-------------------|-------------------|-------------------|
-------------------|-------------------|-------------------|
--0----------------|--L----------------|--L----------------|


           v                                         
  E  E  E  Q    Q    E     E  E  E  E  E  E  E  E    
-----------0------------|---------------------------|
-----------0------------|---------------------------|
-----------0------------|---------------------------|
--0--0--0-------1----0--|--L--0--0--0--0--0--0--6h--|
--0--0--0-------1----0--|--L--0--0--0--0--0--0--6h--|
--0--0--0-------1----0--|--L--0--0--0--0--0--0--6h--|


  E  E  E  E  E  E  E   E      E  E  E  E  E  E  E  E   
----------------------------|--------------------------|
----------------------------|--------------------------|
----------------------------|--------------------------|
--L--0--0--0--0--0--0--11h--|--L--0--0--0--0--0--0--0--|
--L--0--0--0--0--0--0--11h--|--L--0--0--0--0--0--0--0--|
--L--0--0--0--0--0--0--11h--|--L--0--0--0--0--0--0--0--|


           v                                        
  E  E  E  Q    Q    E     E  E  E  E  E  E  E  E   
-----------0------------|--------------------------|
-----------0------------|--------------------------|
-----------0------------|--------------------------|
--0--0--0--0----1----0--|--L--0--0--0--0--0--0--4--|
--0--0--0-------1----0--|--L--0--0--0--0--0--0--4--|
--0--0--0-------1----0--|--L--0--0--0--0--0--0--4--|


  E  E  E  E  E  E  E  E      E    E   E   E   E   E   E   E   
--------------------------|-----------------------------------|
--------------------------|-----------------------------------|
--------------------------|-----------------------------------|
--L--4--4--4--4--4--4--4--|--10S--12--12--12--12--12--12--12--|
--L--4--4--4--4--4--4--4--|--10S--12--12--12--12--12--12--12--|
--L--4--4--4--4--4--4--4--|--10S--12--12--12--12--12--12--12--|


   E    E   E   E   E   E   E  E     E  E  E  E  E  E  E  E    
----------------------------------|---------------------------|
----------------------------------|---------------------------|
----------------------------------|---------------------------|
--10S--13--13--13--13--13--13--0--|--L--0--0--0--0--0--0--6h--|
--10S--13--13--13--13--13--13--0--|--L--0--0--0--0--0--0--6h--|
--10S--13--13--13--13--13--13--0--|--L--0--0--0--0--0--0--6h--|


  E  E  E  E  E  E  E   E      E  E  E  E  E  E  E  E   
----------------------------|--------------------------|
----------------------------|--------------------------|
----------------------------|--------------------------|
--L--0--0--0--0--0--0--11h--|--L--0--0--0--0--0--0--0--|
--L--0--0--0--0--0--0--11h--|--L--0--0--0--0--0--0--0--|
--L--0--0--0--0--0--0--11h--|--L--0--0--0--0--0--0--0--|


  E  E  E  Q    Q    E     E  E  E  E  E  E  E  E   
------------------------|--------------------------|
------------------------|--------------------------|
------------------------|--------------------------|
--0--0--0--1----1----0--|--L--0--0--0--0--0--0--4--|
--0--0--0--1----1----0--|--L--0--0--0--0--0--0--4--|
--0--0--0--1----1----0--|--L--0--0--0--0--0--0--4--|


  E  E  E  E  E  E  E  E     E  E  E  E  E  E  E  E   
--------------------------|--------------------------|
--------------------------|--------------------------|
--------------------------|--2--2--2--2--2--2--2--2--|
--L--4--4--4--4--4--4--4--|--3--3--3--3--3--3--3--3--|
--L--4--4--4--4--4--4--4--|--1--1--1--1--1--1--1--1--|
--L--4--4--4--4--4--4--4--|--------------------------|


  E  E  E  E  E  E  E  E     E  E  E  E  E  E  E  E   
--------------------------|--------------------------|
--------------------------|--------------------------|
--2--2--2--2--2--2--2--2--|--------------------------|
--3--3--3--3--3--3--3--3--|--7--7--7--7--7--7--7--7--|
--1--1--1--1--1--1--1--1--|--7--7--7--7--7--7--7--7--|
--------------------------|--7--7--7--7--7--7--7--7--|


                                          lots of verb.     
  W                   W                   W                 
-------------------|-------------------|-------------------|
-------------------|-------------------|-------------------|
-------------------|-------------------|--8----------------|
--7----------------|--L----------------|-------------------|
--7----------------|--L----------------|-------------------|
--7----------------|--L----------------|-------------------|


  W                    W                     W                  
-------------------|---------------------|---------------------|
-------------------|---------------------|---------------------|
--L----------------|--12b----------------|--12b----------------|
-------------------|---------------------|---------------------|
-------------------|---------------------|---------------------|
-------------------|---------------------|---------------------|


   2nd gtr in ghost notes                        
   Q  E   Q     E   E    E    
-----------------------------|
-----------------------------|
-----------------------------|
---0--L---0-----L---7----7---|
--(1)-L--(1)----L--(8)--(8)--|
-----------------------------|


   Q     E   Q     E   Q         Q      Q      Q      E    E    
-----------------------------|---------------------------------|
-----------------------------|---------------------------------|
-----------------------------|---------------------------------|
---7-----L---5-----L---3-----|---2------2------2------7----7---|
--(8)----L--(7)----L--(5)----|--(3)----(3)----(3)----(8)--(8)--|
-----------------------------|---------------------------------|


   Q      Q      Q      Q        W                 
------------------------------|-------------------|
------------------------------|-------------------|
------------------------------|--8----------------|
---7------5------3------2-----|-------------------|
--(8)----(7)----(5)----(3)----|-------------------|
------------------------------|-------------------|


  W                    W                     W                  
-------------------|---------------------|---------------------|
-------------------|---------------------|---------------------|
--L----------------|--12b----------------|--12b----------------|
-------------------|---------------------|---------------------|
-------------------|---------------------|---------------------|
-------------------|---------------------|---------------------|


   Q     E   Q     E   E    E       Q      Q      Q      Q      
--------------------------------|------------------------------|
--------------------------------|------------------------------|
--------------------------------|------------------------------|
---0-----L---0-----L---7----7---|---7------5------3------0-----|
--(1)----L--(1)----L--(8)--(8)--|--(8)----(7)----(5)----(1)----|
--------------------------------|------------------------------|


   Q      Q      Q      E    E       Q      Q      Q      Q      
---------------------------------|------------------------------|
---------------------------------|------------------------------|
---------------------------------|------------------------------|
---2------2------2------7----7---|---7------5------3------2-----|
--(3)----(3)----(3)----(8)--(8)--|--(8)----(7)----(5)----(3)----|
---------------------------------|------------------------------|


  last four bars keep playing on over top of this with some variation            
  Q    Q    Q    Q     
----------------------|
----------------------|
----------------------|
----------------------|
--5----5----5----5----|
--8----8----8----8----|


                                          
  Q    Q    Q    Q        Q     Q     Q     Q     
----------------------|--------------------------|
----------------------|--------------------------|
----------------------|--------------------------|
----------------------|--------------------------|
--5----5----5----5----|---7-----7-----7-----7----|
--8----8----8----8----|--10----10----10----10----|


   Q     Q     Q     Q       Q    Q    Q    Q     
--------------------------|----------------------|
--------------------------|----------------------|
--------------------------|----------------------|
--------------------------|----------------------|
---7-----7-----7-----7----|--3----3----3----3----|
--10----10----10----10----|--3----3----3----3----|


  Q    Q    Q    Q       Q    Q    Q    Q       Q    Q    Q    Q     
----------------------|----------------------|----------------------|
----------------------|----------------------|----------------------|
----------------------|----------------------|----------------------|
----------------------|----------------------|----------------------|
--3----3----3----3----|--3----5----5----5----|--5----5----5----5----|
--3----3----3----3----|--3----5----5----5----|--5----5----5----5----|


  Q    Q    Q    Q       Q    Q    Q    Q     
----------------------|----------------------|
----------------------|----------------------|
----------------------|----------------------|
----------------------|----------------------|
--5----5----5----5----|--5----5----5----5----|
--8----8----8----8----|--8----8----8----8----|


   Q     Q     Q     Q        Q     Q     Q     Q     
--------------------------|--------------------------|
--------------------------|--------------------------|
--------------------------|--------------------------|
--------------------------|--------------------------|
---7-----7-----7-----7----|---7-----7-----7-----7----|
--10----10----10----10----|--10----10----10----10----|


  Q    Q    Q    Q       Q    Q    Q    Q       Q    Q    Q    Q     
----------------------|----------------------|----------------------|
----------------------|----------------------|----------------------|
----------------------|----------------------|----------------------|
----------------------|----------------------|----------------------|
--3----3----3----3----|--3----3----3----3----|--3----5----5----5----|
--3----3----3----3----|--3----3----3----3----|--3----5----5----5----|


                         long clean delay part.                      
  Q    Q    Q    Q       W                         W                 
----------------------|-------------------------|-------------------|
----------------------|-------------------------|-------------------|
----------------------|-------------------------|-------------------|
----------------------|-------------------------|-------------------|
--5----5----5----5----|-------------------------|-------------------|
--5----5----5----5----|-------------------------|-------------------|
                                            
                                     clean singing w/ distortion part

  W                   W                   Q    E  Q    E  Q     
-------------------|-------------------|-----------------------|
-------------------|-------------------|-----------------------|
-------------------|-------------------|--7----L--7----L--7----|
-------------------|-------------------|--7----L--7----L--7----|
-------------------|-------------------|--5----L--5----L--5----|
-------------------|-------------------|-----------------------|


  H        Q    E  E     Q    Q    H         
----------------------|---------------------|
----------------------|---------------------|
-----------7----L--7--|--L----7-------------|
-----------7----L--7--|--L----7-------------|
-----------5----L--5--|--L----5-------------|
----------------------|---------------------|


  PM PM PM PM                                     
  E  E  E  E  Q    Q        Q    E  Q    E  Q     
-------------------------|-----------------------|
-------------------------|-----------------------|
-------------------------|--5----L--5----L--5----|
--7--7--7--7--7----L\----|--7----L--7----L--7----|
--8--8--8--8--8----L\----|--8----L--8----L--8----|
-------------------------|-----------------------|


  H        Q    E  E     Q    Q    H           W                 
----------------------|---------------------|-------------------|
----------------------|---------------------|-------------------|
-----------5----L--5--|--L----5-------------|-------------------|
-----------7----L--7--|--L----7-------------|-------------------|
-----------8----L--8--|--L----8-------------|-------------------|
----------------------|---------------------|-------------------|


  Q    E  Q    E  Q       H        Q    E  E     Q    Q    H         
-----------------------|----------------------|---------------------|
-----------------------|----------------------|---------------------|
--5----L--5----L--5----|-----------5----L--5--|--L----5-------------|
--5----L--5----L--5----|-----------5----L--5--|--L----5-------------|
--7----L--7----L--7----|-----------7----L--7--|--L----7-------------|
-----------------------|----------------------|---------------------|


  W                   Q    E  Q    E  Q       H        Q    E  E   
-------------------|-----------------------|----------------------|
-------------------|-----------------------|----------------------|
-------------------|--5----L--5----L--5----|-----------5----L--5--|
-------------------|--5----L--5----L--5----|-----------5----L--5--|
-------------------|--7----L--7----L--7----|-----------7----L--7--|
-------------------|-----------------------|----------------------|


  Q    Q    H           W                   Q    E  Q    E  Q     
---------------------|-------------------|-----------------------|
---------------------|-------------------|-----------------------|
--L----5-------------|-------------------|--7----L--7----L--7----|
--L----5-------------|-------------------|--7----L--7----L--7----|
--L----7-------------|-------------------|--5----L--5----L--5----|
---------------------|-------------------|-----------------------|


  H        Q    E  E     Q    Q    H         
----------------------|---------------------|
----------------------|---------------------|
--L--------7----L--7--|--L----7----L--------|
--L--------7----L--7--|--L----7----L--------|
--L--------5----L--5--|--L----5----L--------|
----------------------|---------------------|


  E  E  E  E  Q    Q        Q    E  Q    E  Q     
-------------------------|-----------------------|
-------------------------|-----------------------|
-------------------------|--5----L--5----L--5----|
--7--7--7--7--7----L\----|--7----L--7----L--7----|
--8--8--8--8--8----L\----|--8----L--8----L--8----|
-------------------------|-----------------------|


  H        Q    E  E     Q    Q    H           W                 
----------------------|---------------------|-------------------|
----------------------|---------------------|-------------------|
--L--------5----L--5--|--L----5----L--------|--L----------------|
--L--------7----L--7--|--L----7----L--------|--L----------------|
--L--------8----L--8--|--L----8----L--------|--L----------------|
----------------------|---------------------|-------------------|


  Q    E  Q    E  Q       H        Q    E  E     Q    Q    H         
-----------------------|----------------------|---------------------|
-----------------------|----------------------|---------------------|
--5----L--5----L--5----|--L--------5----L--5--|--L----5----L--------|
--5----L--5----L--5----|--L--------5----L--5--|--L----5----L--------|
--7----L--7----L--7----|--L--------7----L--7--|--L----7----L--------|
-----------------------|----------------------|---------------------|


  W                   Q    E  Q    E  Q       H        Q    E  E   
-------------------|-----------------------|----------------------|
-------------------|-----------------------|----------------------|
--L----------------|--5----L--5----L--5----|--L--------5----L--5--|
--L----------------|--5----L--5----L--5----|--L--------5----L--5--|
--L----------------|--7----L--7----L--7----|--L--------7----L--7--|
-------------------|-----------------------|----------------------|


  Q    Q    H           W                   Q    E  Q    E  Q     
---------------------|-------------------|-----------------------|
---------------------|-------------------|-----------------------|
--L----5----L--------|--L----------------|--7----L--7----L--7----|
--L----5----L--------|--L----------------|--7----L--7----L--7----|
--L----7----L--------|--L----------------|--5----L--5----L--5----|
---------------------|-------------------|-----------------------|


  H        Q    E  E     Q    Q    H         
----------------------|---------------------|
----------------------|---------------------|
--L--------7----L--7--|--L----7----L--------|
--L--------7----L--7--|--L----7----L--------|
--L--------5----L--5--|--L----5----L--------|
----------------------|---------------------|


  E  E  E  E  Q    Q        Q    E  Q    E  Q     
-------------------------|-----------------------|
-------------------------|-----------------------|
-------------------------|--5----L--5----L--5----|
--7--7--7--7--7----L\----|--7----L--7----L--7----|
--8--8--8--8--8----L\----|--8----L--8----L--8----|
-------------------------|-----------------------|


  H        Q    E  E     Q    Q    H           W                 
----------------------|---------------------|-------------------|
----------------------|---------------------|-------------------|
--L--------5----L--5--|--L----5----L--------|--L----------------|
--L--------7----L--7--|--L----7----L--------|--L----------------|
--L--------8----L--8--|--L----8----L--------|--L----------------|
----------------------|---------------------|-------------------|


  Q    E  Q    E  Q       H        Q    E  E     Q    Q    H         
-----------------------|----------------------|---------------------|
-----------------------|----------------------|---------------------|
--5----L--5----L--5----|--L--------5----L--5--|--L----5----L--------|
--5----L--5----L--5----|--L--------5----L--5--|--L----5----L--------|
--7----L--7----L--7----|--L--------7----L--7--|--L----7----L--------|
-----------------------|----------------------|---------------------|


  W                   Q    E  Q    E  Q       H        Q    E  E   
-------------------|-----------------------|----------------------|
-------------------|-----------------------|----------------------|
--L----------------|--5----L--5----L--5----|--L--------5----L--5--|
--L----------------|--5----L--5----L--5----|--L--------5----L--5--|
--L----------------|--7----L--7----L--7----|--L--------7----L--7--|
-------------------|-----------------------|----------------------|


  Q    Q    H           W                   Q    E  Q    E  Q     
---------------------|-------------------|-----------------------|
---------------------|-------------------|-----------------------|
--L----5----L--------|--L----------------|--7----L--7----L--7----|
--L----5----L--------|--L----------------|--7----L--7----L--7----|
--L----7----L--------|--L----------------|--5----L--5----L--5----|
---------------------|-------------------|-----------------------|


  H        Q    E  E     Q    Q    H         
----------------------|---------------------|
----------------------|---------------------|
--L--------7----L--7--|--L----7----L--------|
--L--------7----L--7--|--L----7----L--------|
--L--------5----L--5--|--L----5----L--------|
----------------------|---------------------|


  E  E  E  E  Q    Q        Q    E  Q    E  Q     
-------------------------|-----------------------|
-------------------------|-----------------------|
-------------------------|--5----L--5----L--5----|
--7--7--7--7--7----L\----|--7----L--7----L--7----|
--8--8--8--8--8----L\----|--8----L--8----L--8----|
-------------------------|-----------------------|


  H        Q    E  E     Q    Q    H           W                 
----------------------|---------------------|-------------------|
----------------------|---------------------|-------------------|
--L--------5----L--5--|--L----5----L--------|--L----------------|
--L--------7----L--7--|--L----7----L--------|--L----------------|
--L--------8----L--8--|--L----8----L--------|--L----------------|
----------------------|---------------------|-------------------|


  Q    E  Q    E  Q       H        Q    E  E     Q    Q    H         
-----------------------|----------------------|---------------------|
-----------------------|----------------------|---------------------|
--5----L--5----L--5----|--L--------5----L--5--|--L----5----L--------|
--5----L--5----L--5----|--L--------5----L--5--|--L----5----L--------|
--7----L--7----L--7----|--L--------7----L--7--|--L----7----L--------|
-----------------------|----------------------|---------------------|


  W                   Q    E  Q    E  Q       H        Q    E  E   
-------------------|-----------------------|----------------------|
-------------------|-----------------------|----------------------|
--L----------------|--5----L--5----L--5----|--L--------5----L--5--|
--L----------------|--5----L--5----L--5----|--L--------5----L--5--|
--L----------------|--7----L--7----L--7----|--L--------7----L--7--|
-------------------|-----------------------|----------------------|


  Q    Q    H           W                   E  E  E  E  E  E  E  E   
---------------------|-------------------|--------------------------|
---------------------|-------------------|--------------------------|
--L----5----L--------|--L----------------|--7--7--7--7--7--7--7-----|
--L----5----L--------|--L----------------|--7--7--7--7--7--7--7-----|
--L----7----L--------|--L----------------|--5--5--5--5--5--5--5-----|
---------------------|-------------------|--------------------------|


  H        E  E  E  E     E  E  E  H        E   
-----------------------|-----------------------|
-----------------------|-----------------------|
-----------7--7--7--7--|--7--7--7--------------|
-----------7--7--7--7--|--7--7--7--------------|
-----------5--5--5--5--|--5--5--5--------------|
-----------------------|-----------------------|


  E  E  E  E  E  E   E  E     E  E  E  E  E  E  E  E   
---------------------------|--------------------------|
---------------------------|--------------------------|
--5--5--5--5--5--5S--8--8--|--7--7--7--7--7--7--7-----|
--5--5--5--5--5--5S--8--8--|--7--7--7--7--7--7--7-----|
--3--3--3--3--3--3S--6--6--|--5--5--5--5--5--5--5-----|
---------------------------|--------------------------|


  H        H           W                   W                 
--------------------|-------------------|-------------------|
--------------------|-------------------|-------------------|
--------------------|-------------------|-------------------|
-----------8--------|--L----------------|--L----------------|
-----------8--------|--L----------------|--L----------------|
-----------8--------|--L----------------|--L----------------|


  E  E  E  E  E  E  E  E     H        E  E  E  E   
--------------------------|-----------------------|
--------------------------|-----------------------|
--7--7--7--7--7--7--7-----|-----------7--7--7--7--|
--7--7--7--7--7--7--7-----|-----------7--7--7--7--|
--5--5--5--5--5--5--5-----|-----------5--5--5--5--|
--------------------------|-----------------------|


  E  E  E  H        E     E  E  E  E  E  E   E  E   
-----------------------|---------------------------|
-----------------------|---------------------------|
--7--7--7--------------|--5--5--5--5--5--5S--8--8--|
--7--7--7--------------|--5--5--5--5--5--5S--8--8--|
--5--5--5--------------|--3--3--3--3--3--3S--6--6--|
-----------------------|---------------------------|


  E  E  E  E  E  E  E  E     H        H           W                 
--------------------------|--------------------|-------------------|
--------------------------|--------------------|-------------------|
--7--7--7--7--7--7--7-----|--------------------|-------------------|
--7--7--7--7--7--7--7-----|-----------8--------|--L----------------|
--5--5--5--5--5--5--5-----|-----------8--------|--L----------------|
--------------------------|-----------8--------|--L----------------|


  W                   W                   W                 
-------------------|-------------------|-------------------|
-------------------|-------------------|-------------------|
-------------------|-------------------|-------------------|
--L----------------|--L----------------|--L----------------|
--L----------------|--L----------------|--L----------------|
--L----------------|--L----------------|--L----------------|


  W                  
-------------------||
-------------------||
-------------------||
--L----------------||
--L----------------||
--L----------------||




Duration Legend
---------------
W - whole
H - half
Q - quarter
E - 8th
S - 16th
T - 32nd
X - 64th
. - note dotted
|-n-|  - n-tuplets


Tablature Legend
----------------
L - tied note
x - dead note
g - grace note
(n) - ghost note
> - accentuded note
NH - natural harmonic
AH - artificial harmonic
TH - tapped harmonic
SH - semi harmonic
PH - pitch harmonic
h - hammer on
p - pull off
b - bend
br - bendRelease
pb - preBend
pbr - preBendRelease
brb - bendReleaseBend
\n/ - tremolo bar dip
\n - tremolo bar dive
-/n - tremolo bar Release up
/n\ - tremolo bar inverted dip
/n - tremolo bar return
-\n - tremolo bar Release down
S - shift slide
s - legato slide
/ -  slide into from below or out of upwards
\ -  slide into from above or out of downwards
~ - vibrato
W - wide vibrato
tr - trill
TP - tremolo picking
T - tapping
S - slap
P - pop
< - fade in
^ - brush up
v - brush down
Tap to rate this tab
 
# A B C D E F G H I J K L M N O P Q R S T U V W X Y Z