Bring Me The Horizon - It Never Ends tab

Tuning: Drop C
sp = speed pick
* = palmute
~ = let ring (hold note)
x2 = play twice

This is how I play "It Never Ends" by the best band ever. Strumming patterns may not be 
100% correct so figure it out. Im pretty confident that notes match the song. Enjoy.

D---------------------------------------------------------------------------|
A---------------------------------------------------------------------------|
F---------------------------------------------------------------------------|
C---------------------------------------------------------------------------|
G---------------------------------------------------------------------------|
C--10101010101010101010101010101010-----------------------------------------|

D---------------------------------------------------------------------------|
A---------------------------------------------------------------------------|
F---------------------------------------------------------------------------|
C------121212121212121212121212121212---1212121212121212---10--10--10-------|
G------121212121212121212121212121212---1212121212121212---10--10--10-------|
C------121212121212121212121212121212---1212121212121212---10--10--10-------|

D----------------------------------------------------------------------|
A----------------------------------------------------------------------|
F----------------------------------------------------------------------|
C--------------8888-888888888--8888888-10-10-10-10---------------------|X2
G--------------8888-888888888--8888888-10-10-10-10---------------------|
C--------------8888-888888888--8888888-10-10-10-10---------------------|

D---------------------------------------------------------------------------|
A---------------------------------------------------------------------------|
F---------------------------------------------------------------------------|
C---------------------------------------------------1515151515151515--------|
G---------------------------------------------------1010101010101010--------|
C---1212121212121212121212121212121012121212121212--1010101010101010--------|

D----------------------------------------------------------------------------|
A----------------------------------------------------------------------------|
F-----------------------------------------------------------10101010---------|
C-------------------------------10--10--10--000---000---000-X-X-X-X--0--0--0-|
G-------------------------------10--10--10--000---000---000-8-8-8-8--0--0--0-|
C---8888888888888888788888888---10--10--10--000-0-000-0-000----------0--0--0-|
                                            *** * *** * ***

D---------------------------------------------------------------------------|
A---------------------------------------------------------------------------|
F---------------------------------------------------------------------------|
C--9-9-9-9-9-9-9-9-9-9-9-9-9-9-9-9------------------------------------------|
G--X-X-X-X-X-X-X-X-X-X-X-X-X-X-X-X----------------------------7-7-7-9-------|
C--7-7-7-7-7-7-7-7-7-7-7-7-7-7-7-7--888888888888888888888888----------------|

D---------------17~-------15~---20~-----13~-------12~---15~-----------------|
A---------------------------------------------------------------------------|
F---------------------------------------------------------------------------|
C---------------------------------------------------------------------------|
G---------------------------------------------------------------------------|
C---------------------------------------------------------------------------|

D--------------------17~---15~-----20~------18~-----17~---------------------|
A---------------------------------------------------------------------------|
F---------------------------------------------------------------------------|
C---------------------------------------------------------------------------|
G---------------------------------------------------------------------------|
C---------------------------------------------------------------------------|

D---17sp---15sp---13sp---17sp---15sp---18sp---17sp---15sp---13sp--15sp--20sp-|
A----------------------------------------------------------------------------|
F----------------------------------------------------------------------------|
C----------------------------------------------------------------------------|
G----------------------------------------------------------------------------|
C----------------------------------------------------------------------------|

D---------------------------------------------------------------------------|
A---------------------------------------------------------------------------|
F---------------------------------------------------------------------------|
C--5-5-5-5-5-5-5-555-8-8-8-8-8-8---------12-12-12-12-12-12------------------|
G--5-5-5-5-5-5-5-555-8-8-8-8-8-8-------8-12-12-12-12-12-12------------------|
C--5-5-5-5-5-5-5-555-8-8-8-8-8-8--8h10---12-12-12-12-12-12------------------|

D---------------------------------------------------------------------------|
A---------------------------------------------------------------------------|
F---------------------------------------------------------------------------|
C---------10-10-10-10-10-10---5-5-5-5-5-5-5-5-888888888---------------------|
G------8--10-10-10-10-10-10---5-5-5-5-5-5-5-5-888888888---------------------|
C--8h10---10-10-10-10-10-10---5-5-5-5-5-5-5-5-888888888---------------------|

D----------------------------------------------------------------------------|
A----------------------------------------------------------------------------|
F--------------------10-1010-101010------------------------------------------|
C-7--77-7-7-7-7-777--10-1010-101010------------------------------------------|
G-5--55-5-5-5-5-555--8--8-8--8-8-8-10-1010-101010-8-88-888-8-88-8888-88-8888-|
C-0--00-0-0-0-0-000----------------10-1010-101010-8-88-888-8-88-8888-88-8888-|

D------------------------------------------------------------------------|
A------------------------------------------------------------------------|
F------------------------------------------------------------------------|
C--------------------------------------------------8---------------------|X2
G-----------------777-7-8--------------------------8---------------------|
C--------------------------------------------------8---------------------|
                  *** *

D---------------------------------------------------------------------------|
A---------------------------------------------------------------------------|
F------5-----5--------------------------------------------------------------|
C---5----7-7---7-8-------------5--------------------------------------------|
G---5------7-----8-------------5--------------------------------------------|
C---5------7-----8-------------5--------------------------------------------|

                            "You say this is suicide. I say this is a..."
D---------------------------------------------------------------------------|
A---------------------------------------------------------------------------|
F-----------------------101010101010101010101010101010101010101010101010----|
C---000-0-000-0-000-----X-X-X-X-X-X-X-X-X-X-X-X-X-X-X-X-X-X-X-X-X-X-X-X-----|
G---000-0-000-0-000-----8-8-8-8-8-8-8-8-8-8-8-8-8-8-8-8-8-8-8-8-8-8-8-8-----|
C---000-0-000-0-000---------------------------------------------------------|
    *** * *** * ***


  "WAR!"
D---------------------------------------------------------------------------|
A---------------------------------------------------------------------------|
F-------------------------------------------------------5555----------------|
C--000-000---0--0--0--0-000-000-000-000---000-0------00-XXXX----------------|
G--000-000---0--0--0--0-000-000-000-000---000-0------00-3333----------------|
C--000-000---0--0--0--0-000-000-000-000---000-0-0-0--00---------------------|
   *** ***   *  *  *  * *** *** *** ***   *** *      **

D---------------------------------------------------------------------------|
A-----------------------------------------------------------------------8---|
F------------------------------------5-5-10--repeat except end with-----8---|
C--00--0--0-0-0-0---000-000---000-0--X-X-X------------------------------8---|
G--00--0--0-0-0-0---000-000---000-0--3-3-8----------------------------------|
C--00--0--0-0-0-0---000-000---000-0-----------------------------------------|
   *      * * * *   *** ***   *** *

D---------------------------------------------------------------------------|
A---------------------------------------------------------------------------|
F---------------------------------------------------------------------------|
C-000-000-000-000-------------0-0-0-0-0-0----------000-000-000-000----------|
G-000-000-000-000-------------0-0-0-0-0-0----------000-000-000-000----------|
C-000-000-000-000-00000000----0-0-0-0-0-0-00000000-000-000-000-000-00000000-|
  *** *** *** ***  ** * *     * * * * * *  ** * *  *** *** *** ***  ** * *

D----------------------------------------------------------------------------|
A----------------------------------------------------------------------------|
F----------------------------------------------------------------------------|
C---12----10--12----1515151515151515-888888888888888788888888810101010101010-|
G---12X15-10--12X8--1010101010101010-888888888888888788888888810101010101010-|
C---12----10--12----1010101010101010-888888888888888788888888810101010101010-|

D--17~---10~----13~----5~----6~---8~-------17~--------10~-------------------|
A---------------------------------------------------------------------------|
F---------------------------------------------------------------------------|
C---------------------------------------------------------------------------|
G---------------------------------------------------------------------------|
C---------------------------------------------------------------------------|

D---------------------------------------------------------------------------|
A---------------------------------------------------------------------------|
F---------------------------------------------------------------------------|
C----------12-12-12-12-12-12---------10-10-10-10-10-------------------------|
G--------8-12-12-12-12-12-12-------8-10-10-10-10-10-------------------------|
C---8h10---12-12-12-12-12-12--8h10---10-10-10-10-10-------------------------|

Chorus

D---------------------------------------------------------------------------|
A---------------------------------------------------------------------------|
F------5------5---------------------5---------------------------------------|
C---5----7-7----7-8-8-8-8-8-8-88--5---7--7----------------------------------|
G---5------7------8-8-8-8-8-8-88--5------7----------------------------------|
C---5------7------8-8-8-8-8-8-88--5------7----------------------------------|

(Find a clean echo preset on your amp or pedal for best sound.)
D---------------------------------------------------------------------------|
A---------------------------------------------------------------------------|
F---10~----9~-------------------------------------10~----9~-----------------|
C---------------------------------------------------------------------------|
G---------------------------------------------------------------------------|
C---------------------------------------------------------------------------|

(If you want, you can play this as the second 10 is played.)
D--------15~------13~-------------------------------------------------------|
A-----15--------------------------------------------------------13~---------|
F---------------------------------------------------------------------------|
C---------------------------------------------------------------------------|
G---------------------------------------------------------------------------|
C---------------------------------------------------------------------------|

"Every second, every minute, every HOUR, every day."
D---------------------------------------------------------------------------|
A---------------------------------------------------------------------------|
F---------------------------------------------------------------------------|
C---8888--88888888888--888888--10--12121212-1212121212121212121212-12---10--|
G---8888--88888888888--888888--10--12121212-1212121212121212121212-12---10--|
C---8888--88888888888--888888--10--12121212-1212121212121212121212 12x8 10--|
Tap to rate this tab
 
# A B C D E F G H I J K L M N O P Q R S T U V W X Y Z