Bring Me The Horizon - Blessed With A Curse tab

BMTH-Blessed With A curse Solo
DROP C ( C G C F A D )
My First Tab

v-Bend

e -----------------------------------------15--17--v17--17--15----v17-17~----|
b -----------------------------------17--------------------------------------|
g -----------------17--14~---------------------------------------------------|
d -----14--17----------------------------------------------------------------|
a ---------------------------------------------------------------------------|
e ---------------------------------------------------------------------------|

e ----------------------------------------------------------------------------|
b ----------------------------------------------------------------------------|
g ----------------------------------------------------------------------------|
d ---------------12--v12--14---12p10------------------------------------------|
a ----12--15-------------------------------12--10-----------------------------|
e ----------------------------------------------------------------------------|


e ----------------------------------------------------------------------------|
b ----------------------------------------------------------------------------|
g ----------14-12-------------------------------------------------------------|
d ---s14-----------14-12-14-12------------------------------------------------|
a ----------------------------------------15-12-15-12-15-12-15~---------------|
e ----------------------------------------------------------------------------|


e ---------------------------------------------------------------------------|
b ---------------------------------------------------------------------------|
g ---------------------------------------------------------------------------|
d ---------------------------------------------------------------------------|
a -----10--12--10--7--10--7--5--7--5--2--5--2--5--7--10--12~-----------------|
e ---------------------------------------------------------------------------|
Tap to rate this tab
 
# A B C D E F G H I J K L M N O P Q R S T U V W X Y Z