Bring Me The Horizon - The Sadness Will Never End tab

I tabbed  this song for one guitar Ďcause Iím lazy. And I hate all the poo tabs out
there that say itís played in drop A#. If you wanna know how to play both guitar parts
separately, then figure it out yourself.

-=Intro=-
D|-------------------------|-------------------------------------------|
A|-------------------------|-------------------------------------------|
F|-------------------------|-------------------------------------------|
C|-3-3-3-3-3-3-3-3---------|-3-3-3-3-3-3-3-3---------------------------|
G|-5-5-5-5-5-5-5-5---------|-5-5-5-5-5-5-5-5---------------------------|
C|-0-0-0-0-0-0-0-0-(Pause)-|-0-0-0-0-0-0-0-0-333-3/888-5555777-333-777-|

|-----------------------------------------------------------------|
|-----------------------------------------------------------------|
|-----------------------------------------------------------------|
|-3-3-3-3-3-3-3-3-------------------------------------------------|
|-5-5-5-5-5-5-5-5----------------------0000-----------------------|
|-0-0-0-0-0-0-0-0-333-3/888-5555777-3330000-(Stop with your palm)-|


Donít slide down like a maniac, just do it subtly.
||-----------------------------------------------||
||-----------------------------------------------||
||---------------------------------------------x2||
||-------3-3\---------------7777-----------------||
||-0-0---5-5\---------8-8---888810101010101010---||
||-0-0-0-0-0\-3333333-8-8-8-88888-8-8-8-8-8-8----||
       .                  .

|------------17---------------|
|--------------18-------------|
|----------------17-----------|
|------------------14b15r14---|
|-0-0---0---0--------------15-|
|-0-0-0-0-0-0-----------------|
      .   .

|--------------------|
|--------------------|
|--------------------|
|-------7~-----------|
|----8~-----------9~-|
|-8~-------9~-10~----|

-=Verse=-
Second time through the repeated part, only play the power chords.
(----------Light distortion------------------------------------------------|
|-----------------------------------||-------------------------------------|
|-----------------------------------||-------------------------------------|
|-----------------------------------||-------------------------------------|
|-12~--10~--7~--8~--5~--8~--5~--10~-||-1212121212121212-1010101010101010---|
|-12~--10~--7~--8~--5~--8~--5~--10~-||-1212121212121212-1010101010101010---|
|-12~--10~--7~--8~--5~--8~--5~--10~-||-1212121212121212-1010101010101010---|

|----------------------------------------------------------------||
|----------------------------------------------------------------||
|--------------------------------------------------------------x2||
|-77777777-88888888----------------------------------------------||
|-77777777-88888888----------------------------------------------||
|-77777777-88888888-55555555-58888888-55555555-510101010101010---||

|------------------------------------------------------|
|------------------------------------------------------|
|----------------------------------------7/1010109-9-9-|
|----------------------------------------x/x-x-x-x-x-x-|
|-0-0---0---0----------------0-0---0---0-5/8-8-8-7-7-7-|
|-0-0-0-0-0-0-3/8-8-8-8-8-8--0-0-0-0-0-0---------------|
      .   .  (Light distortion)     .   .

-=Chorus=-
||--------------------------------------------||
||--------------------------------------------||
||------------------------------------------x2||
||-3-3-3-3-3-3-3-3----------------------------||
||-5-5-5-5-5-5-5-5----------------------------||
||-0-0-0-0-0-0-0-0-3333/888-5555777-3333777---||

                      (Might be 17, I canít remember)
|-----------------------------18t---------------------|
|-------------18t-------------------------------------|
|-----------------------------------------------------|
|-----------------------------------------------------|
|-0-0---0---0-----0-0---0---0-----0-0---0---0---------|
|-0-0-0-0-0-0-----0-0-0-0-0-0-----0-0-0-0-0-0-(Pause)-|
      .   .           .   .           .   .
-=Verse=-
Second time through only play the power chords.
||-----------------------------------------------------|
||-----------------------------------------------------|
||-----------------------------------------------------|
||-1212121212121212-1010101010101010-77777777-88888888-|
||-1212121212121212-1010101010101010-77777777-88888888-|
||-1212121212121212-1010101010101010-77777777-88888888-|

|----------------------------------------------||
|----------------------------------------------||
|--------------------------------------------x2||
|----------------------------------------------||
|----------------------------------------------||
|-55555555-58888888-55555555-510101010101010---||


|------------------------------------------------------|
|------------------------------------------------------|
|----------------------------------------7/1010109-9-9-|
|----------------------------------------x/x-x-x-x-x-x-|
|-0-0---0---0----------------0-0---0---0-5/8-8-8-7-7-7-|
|-0-0-0-0-0-0-3/8-8-8-8-8-8--0-0-0-0-0-0---------------|
      .   .  (Light distortion)     .   .

-=Chorus 2=-
||-----------------------------------------------------------------|
||-----------------------------------------------------------------|
||-----------------------------------------------------------------|
||-1212121212121212-12121212121212-1010101010101010-10101010101010-|
||-1212121212121212-12121212121212-1010101010101010-10101010101010-|
||-1212121212121212-12121212121212-1010101010101010-10101010101010-|






|-----------------||
|-----------------||
|---------------x2||
|-----7~-----7~---||
|---7~-----8~-----||
|-7~-----8~-------||

-=Bridge=-
||---------------------------------------------||
||---------------------------------------------||
||--------------------------7/101010109-9-9--x2||
||-8-----8888---------0-----x/x-x-x-x-x-x-x----||
||-8-x24-8888-8101010-0-x24-5/8-8-8-8-7-7-7----||
||-8-----8888-88-8-8--0------------------------||

||-------------------------||
||-------------------------||
||----------------15-x8--x4||
||-15-x16--12-x8-----------||
||-------------------------||
||-------------------------||

-=Pre-Chorus=-
(With light distortion)
|---------------------------------------------|
|---------------------------------------------|
|---------------------------------------------|
|---------------------------------------------|
|---------------------------------------------|
|-1212121212121212\-333-3/888-5555777-3333777-|

-=Chorus=-
||--------------------------------------------||
||--------------------------------------------||
||------------------------------------------x2||
||-3-3-3-3-3-3-3-3----------------------------||
||-5-5-5-5-5-5-5-5----------------------------||
||-0-0-0-0-0-0-0-0-3333/888-5555777-3333777---||

||-----------------------------------------------||
||-----------------------------------------------||
||---------------------------------------------x2||
||-------3-3\---------------7777-----------------||
||-0-0---5-5\---------8-8---888810101010101010---||
||-0-0-0-0-0\-3333333-8-8-8-88888-8-8-8-8-8-8----||
       .                  .
End on
|----|
|----|
|----|
|-0~-|
|-0~-|
|-0~-|








-=Pre-Break-down=-
(Light distortion)
Not 100% sure on this part but the bass notes are correct
||-----------------||
||-----------------||
||---------------x2||
||-8~-5~-11~-12~---||
||-8~-5~-11~-12~---||
||-8~-5~-11~-12~---||
(The second time through instead of letting the 12 ring, go to the next riff)

||------------------------------||
||------------------------------||
||----------------------------x2||
||------------------------------||
||------------------------------||
||-12-x16--8-x8--5-x4--11-x4----||
(The second time through instead of picking the 12, go to the next riff)

-=Break-down=-
(Light distortion)
|---------------------------------------------------------------------|    
|------6666----------6666------6666---------6666-----6666-------6666--|
|------9999----------9999------9999---------9999-----7777-------7777--|   
|---------------------------------------------------------------------|
|-----------00000000----------------000-000---------------0-0-0-------|
|-12-0------00000000------12-0------000-000------8-0------0-0-0-------|
            ........                ... ...               . . .

(Back to normal distortion)
||-------------------------------------|
||-------------------------------------|
||-------------------------------------|
||-------------------------------------|
||-------------------------------------|
||-8-8-8-8-8-8-8-8-5-5-5-5-11-11-11-11-|

|-----------------------------------------------------------------------||
|------6666----------6666------6666---------6666-----6666-------6666----||
|------9999----------9999------9999---------9999-----7777-------7777--x?||
|-----------------------------------------------------------------------||
|-----------00000000----------------000-000---------------0-0-0---------||
|-12-0------00000000------12-0------000-000------8-0------0-0-0---------||
            ........                ... ...               . . .
-=Pre-solo=-
|----------------------------------------||
|----------------------------------------||
|-------------------------------------x4?||
|-8-8-8-8-8-8-8-8-5-5-5-5-11-11-11-11----||
|-8-8-8-8-8-8-8-8-5-5-5-5-11-11-11-11----||
|-8-8-8-8-8-8-8-8-5-5-5-5-11-11-11-11----||

-=Solo=-
|---------------17----20----20b----22-20-22-18-22-17-22--22--22---|
|---18----20-------------------------------------------20--18--17-|
|-19--1919--1919--1919--1919--------------------------------------|
|-----------------------------------------------------------------|
|-----------------------------------------------------------------|
|-----------------------------------------------------------------|
|-18p17p15--------------------------------------------------------|
|---------18p17p15-14---------------------------------------------|
|--------------------15p14----------------------------------------|
|-------------------------17p15p14--------------------------------|
|---------------------------------17------------------------------|
|-----------------------------------------------------------------|

-=Outro=- : is just the breakdown repeated

End.
Tap to rate this tab
 
# A B C D E F G H I J K L M N O P Q R S T U V W X Y Z