Song name
# A B C D E F G H I J K L M N O P Q R S T U V W X Y Z

Bring Me The Horizon - 15 Fathoms Counting tab

Hey guys, this tab is basically belongs to i_can_kill_me, i just changed a little bit of 
it! so creadit goes out to him! great tab(:


|-------------------|--------------------|------------------|
|----------------0--|----------------0---|----------------0-|
|---------3------3--|----------------4---|----------3-----3-|
|----------------4--|---------4------4---|----------------4-|
|------2-----2------|------2-----2-------|------2------2----|
|---4---------------|---0----------------|---4--------------|

|--------------------|-------------------------|-----0--------------------|
|0----------------0-----------0--------0h2---0-|--2----2-----------0------|
|-----------------4--|--------------4----------|---------------3----3-----|
|----------4------4--|--------------4----------|------------1-------------|
|0------2-----2------|-----2-----2-------------|--------------------------|
|----0---------------|--0----------------------|--------------------------|

                                                                        X4
|-------------------------------------------------------------------------|
|-----------------------------------------------------------------------0-|
|----------------11-------11-------11----11--------11-11-11---------------|
|---------9------9--------9--------9-----9---------9--9--9----------------|
|------9----9----9--------9--------9-----9---------9--9--9--------------0-|
|---0---------------------------------------------------------------------|
                           Listen to the song to
                           get the strum pattern
     Part 1                      Strum X8                 Strum X8  |X2|
|--------------------------|--------7---|------------|-----------------|
|0-------------------------|--------4---|------------|----------------0|
|----2--2/6--6--6--8\6--4--|--------4---|------------|------11---------|
|----x--x-x--x--x--x-x--x--|--------6---|Part 1 again|-------9---------|
|0---4--4/4--4--4--6\4--2--|------------|------------|-------9--------0|
|--------------------------|----4-------|------------|---0-------------|

                                             X4
|----------------------------2-|-----------2--|
|0------------2-----------2--2-|-----------2-0|
|---------4------------4-----6-|-----------6--|
|-------------------1--------4-|-----------4--|
|0-----------------------------|-------------0|
|-----0------------------------|-------2------|


|-------------------|--------------------|------------------|
|----------------0--|----------------0---|----------------0-|
|---------3------3--|----------------4---|----------3-----3-|
|----------------4--|---------4------4---|----------------4-|
|------2-----2------|------2-----2-------|------2------2----|
|---4---------------|---0----------------|---4--------------|
Tap to rate this tab
 
# A B C D E F G H I J K L M N O P Q R S T U V W X Y Z