Song name
# A B C D E F G H I J K L M N O P Q R S T U V W X Y Z

Bring Me The Horizon - Death Breath tab

Death Breath - Bring me the Horizon

one of the few songs which hasn't been tabbed for bmth so decided to give it a go!!

Tuning: Drop G (G-D-G-C-E-A#) Basically drop G but the high e string isn't tuned all the 
way down cause otherwise the end tremolo bit doesn't fit onto the guitar. and I 
realised this towards the end of the tab so it says A but its actually A#

Intro:

Guitar 1 x4
A|---------------------------------------------------------------------------|
E|---------------------------------------------------------------------------|
C|---------------------------------------------------------------------------|
G|-13------------------------------------------------------------------------|
D|---------------------------------------------------------------------------|
G|---00-12-0-10-0-12-000012000012000012000012--------------------------------|

Guitar 2 x4
A|--------------------------------------------------------------------|
E|--------------------------------------------------------------------|
C|--------------------------------------------------------------------|
G|-13-----------------------------------------------------------------|
D|--------------------------------------------------------------------|
G|---00-12-0-10-0-12/-------------------------------------------------|

Break..
Both Guitars
A|--------------------------------|
E|--------------------------------|
C|--15~---------------------------|
G|--------------------------------|
D|--13~---------------------------|
G|--------------------------------|

Intro 2

Both Guitars:                                                                   \
A|---------------------------------------------------------------------------|  -- |
E|---------------------------------------------------------------------------|  -- |
C|---------------------------------------------------------------------------|  -- |
G|-13------------------------------------------------------------------------|  -- |
D|---------------------------------------------------------------------------|  -- |
G|---00-12-0-10-0-12-0000120000120000120000121313--------------------------------- |
                                                                                  x2
A|---------------------------------------------------------------------------|  -- |
E|-------------------------------------------------------------(15)----------|  -- |
C|---------------------------------------------------------------------------|  -- |
G|-13----------------------1515151515151515-12121212-8888--------------------|  -- |
D|-------------------------1313131313131313-10101010-6666--------------------|  -- |
G|---00-12-0-10-0-12-000012------------------------------------------------------- |   /
                                                                 ^
                                                          (only play the 15 the 2nd time)
Breakdown

Both Guitars:
A|--------------------------------------------------|
E|--------------------------------------------------|
C|--------------------------------------------------|
G|--------------------------------------------------|
D|--------------------------------------------------|
G|-00-0-0-00000------0-0-0-000-0-0-0-00-0-0-00000---|
   ..     .....            ...       ..     .....
(not entirely sure bout the rhythm but you get the idea)

Verse 1

Guitar 1: x2
A|----------------------------------------------------|
E|----------------------------------------------------|
C|----------------------------------------------------|
G|----------------------------------------------------|
D|----------------------------------------------------|
G|--0~-121012-0000-121012-0000-121012-0000-121012h13--|

Guitar 2 x2 (Same as the breakdown)
A|--------------------------------------------------|
E|--------------------------------------------------|
C|--------------------------------------------------|
G|--------------------------------------------------|
D|--------------------------------------------------|
G|-00-0-0-00000------0-0-0-000-0-0-0-00-0-0-00000---|
   ..     .....            ...       ..     .....

Verse 2

Guitar 1: x2
A|-----------------------------------------------------------------|
E|-----------------------------------------------------------------|
C|------777777--------77777777-------------------------------------|
G|------777777--------77777777-88888888-55555555-1010101010101010--|
D|------555555--------55555555-------------------------------------|
G|--0-0-------0000-0-0---------88888888-55555555-1010101010101010--|
               ...

Guitar 2: x2
A|-----------------------------------------------------------------|
E|-----------------------------------------------------------------|
C|-----------------------------------------------------------------|
G|-----------------------------88888888-55555555-1010101010101010--|
D|-----------------------------------------------------------------|
G|--0-0-------0000-0-0---------88888888-55555555-1010101010101010--|
               ...

Verse 3

Both Guitars:                                                 \
A|----------------------------------------------------------|-- |
E|----------------------------------------------------------|-- |
C|----------------------------------------------------------|-- |
G|----------------------------------------------------------|-- |
D|------------------------------------------------------------- |
G|--0~-121012-0000-121012-1515151515151515-101010101010-1313--- |
                                                               x2
A|------------------------------------------------------------- |
E|------------------------------------------------------------- |
C|----------------------------------------------------------|-- |
G|----------------------------------------------------------|-- |
D|----------------------------------------------------------|-- |
G|--0~-121012-0000-121012-55555555-888888-1010--------------|-- |
                                                              /
Breakdown:


Both Guitars: x2
A|--------------------------------------------------|
E|-15~----------------------------------------------|
C|--------------------------------------------------|
G|--------------------------------------------------|
D|--------------------------------------------------|
G|----00-0-0-00000------0-0-0-000-0-0-0-00-0-0-00000|
      ..     .....            ...       ..     .....

Repeat Verse 1 but both guitars play guitar 1's part.


Verse 2

Guitar 1: x2
A|---------------------------------------------------------------------------------|
E|---------------------------------------------------------------------------------|
C|----777777--------77777777-------------------------------------------------------|
G|----777777--------77777777--------8888---------88888888-55555555-1010101010101010|
D|----555555--------55555555-------------------------------------------------------|
G|----------000-000---------000-000-8888-000-000-88888888-55555555-1010101010101010|

Guitar 2: x2
A|---------------------------------------------------------------------------------|
E|---------------------------------------------------------------------------------|
C|---------------------------------------------------------------------------------|
G|----------------------------------8888---------88888888-55555555-1010101010101010|
D|---------------------------------------------------------------------------------|
G|----------000-000---------000-000-8888-000-000-88888888-55555555-1010101010101010|

Verse 3
Both Guitars:
A|----------------------------------------------------------|
E|----------------------------------------------------------|
C|----------------------------------------------------------|
G|----------------------------------------------------------|
D|----------------------------------------------------------|
G|--0~-121012-0000-121012-1515151515151515-101010101010-1313|

A|----------------------------------------------------------|
E|----------------------------------------------------------|
C|----------------------------------------------------------|
G|----------------------------------------------------------|
D|----------------------------------------------------------|
G|--0~-121012-0000-121012-55555555-888888-1010--------------|

A|----------------------------------------------------------|
E|----------------------------------------------------------|
C|----------------------------------------------------------|
G|----------------------------------------------------------|
D|----------------------------------------------------------|
G|--0~-121012-0000-121012-1515151515151515-101010101010-1313|

A|-------------------------------2---------2-----2-------------|
E|--------------------------------3----------------------------|
C|---------------------------------3---------------------------|
G|-------------------------------------------------------------|
D|-------------------------------------------------------------|
G|--0~-121012-0000-121012-7-7-7-----3-3-3---1-1-1----0~--------|

Breakdown 2
A|--------------------------------|
E|--------------------------------|
C|--------------------------------|
G|--------------------------------|
D|--------------------------------|
G|-0-0-000-000-0-0-0-000-000-0----|
(again, not entirely sure bout the rhythm but you get the idea)

Intro 2:

Both Guitars:                                                                   \
A|---------------------------------------------------------------------------|  -- |
E|---------------------------------------------------------------------------|  -- |
C|---------------------------------------------------------------------------|  -- |
G|-13------------------------------------------------------------------------|  -- |
D|---------------------------------------------------------------------------|  -- |
G|---00-12-0-10-0-12-0000120000120000120000121313--------------------------------- |
                                                                                  x2
A|---------------------------------------------------------------------------|  -- |
E|---------------------------------------------------------------------------|  -- |
C|---------------------------------------------------------------------------|  -- |
G|-13----------------------1515151515151515-12121212-8888--------------------|  -- |
D|-------------------------1313131313131313-10101010-6666--------------------|  -- |
G|---00-12-0-10-0-12-000012--------------------------------------------0~--------- |   /

Small Interlude bit:

Guitar 1:
A|--------------------------------|
E|--------------------------------|
C|-7~-----------------------------|
G|-7~------12121212---15151515----|
D|-5~------10101010---13131313----|
G|------------------00------------|

Verse 3

Both Guitars:
A|----------------------------------------------------------|
E|----------------------------------------------------------|
C|----------------------------------------------------------|
G|----------------------------------------------------------|
D|----------------------------------------------------------|
G|--0~-121012-0000-121012-1515151515151515-101010101010-1313|

A|----------------------------------------------------------|
E|----------------------------------------------------------|
C|----------------------------------------------------------|
G|----------------------------------------------------------|
D|----------------------------------------------------------|
G|--0~-121012-0000-121012-55555555-888888-1010--------------|


Both Guitars:
A|----------------------------------------------------------------|
E|----------------------------------------------------------------|
C|----7-77-7------7-77-7------------------------------------------|
G|----7-77-7------7-77-7------------------------------------------|
D|----5-55-5------5-55-5------------------------------------------|
G|----------0-0-0--------0-0-0-1515151515151515-101010101010-1313-|

A|----------------------------------------------------------------|
E|----------------------------------------------------------------|
C|----7-77-7------7-77-7------------------------------------------|
G|----7-77-7------7-77-7------------------------------------------|
D|----5-55-5------5-55-5------------------------------------------|
G|----------0-0-0--------0-0-0-55555555-888888-1010---------------|

Outro

Guitar 1:
A|-------------------------------------------------------------1919191919191919----|
E|-----------------------------1717171717171717-18181818181818---------------------|
C|------777777--------77777777-----------------------------------------------------|
G|------777777--------77777777-----------------------------------------------------|
D|------555555--------55555555-----------------------------------------------------|
G|--0-0-------0000-0-0-------------------------------------------------------------|

Guitar 2:

A|-----------------------------------------------------------------|
E|-----------------------------------------------------------------|
C|-----------------------------------------------------------------|
G|-----------------------------88888888-55555555-1010101010101010--|
D|-----------------------------------------------------------------|
G|--0-0-------0000-0-0---------88888888-55555555-1010101010101010--|
               ...

Guitar 1:
A|-24242424242424242424242424242424-2323232323232323-1919191919191919-2121212121212121---|
E|---------------------------------------------------------------------------------------|
C|-------------------------------------------------------------------------------------19|
G|---------------------------------------------------------------------------------------|
D|---------------------------------------------------------------------------------------|
G|---------------------------------------------------------------------------------------|

Guitar 2:
A|-----------------------------------------------------------------|
E|-----------------------------------------------------------------|
C|------777777--------77777777-------------------------------------|
G|------777777--------77777777-88888888-55555555-1010101010101010--|
D|------555555--------55555555-88888888-55555555-1010101010101010--|
G|--0-0-------0000-0-0---------88888888-55555555-1010101010101010--|

And that's pretty much it!! :) Should be few errors and ,like I said, the rhythm is easy 
for the breakdowns is easy to figure out and the rhythm on the tab may be slightly 
different but its close enough!! enjoy!! :)
Tap to rate this tab
 
# A B C D E F G H I J K L M N O P Q R S T U V W X Y Z