Song name
# A B C D E F G H I J K L M N O P Q R S T U V W X Y Z

Bring Me The Horizon - It Never Ends tab

-------------------------------------------------------------------
               It Never Ends - Bring Me The Horizon
-------------------------------------------------------------------
Tabbed by: Kristyn Lee
Email: spot_the_village_loony_836@hotmail.com

Tuning: Drop C

Intro (part 1)
D|-------------------|
A|-------------------|
F|-------------------|
C|-------------------|
G|-------------------|
C|---10--(x16)-------|

--------------------------------------------------------------------------
Intro (part 2)
Rythem
D|-------------------------------------------|
A|-------------------------------------------|
F|-------------------------------------------|
C|---7777777777777777-7777777-5-5-5----------|
G|---5555555555555555-5555555-3-3-3----------|
C|-------------------------------------------|
Lead
D|------------------------------------------------------------|
A|------------------------------------------------------------|
F|---10101010101010101010101010101010-10101010101010-9-9-9----|
C|---x-x-x-x-x-x-x-x-x-x-x-x-x-x-x-x--x-x-x-x-x-x-x--x-x-x----|
G|---8-8-8-8-8-8-8-8-8-8-8-8-8-8-8-8--8-8-8-8-8-8-8--7-7-7----|
C|------------------------------------------------------------|

Rythem
D|------------------------------------------------|
A|------------------------------------------------|
F|------------------------------------------------|
C|------------------------------------------------|
G|---8888-88888888-8888-88888888-10101010---------|
C|---8888-88888888-8888-88888888-10101010---------|
Lead
D|------------------------------------------------|
A|------------------------------------------------|
F|---9999-7777777-9999-7777777-9999---------------|
C|---xxxx-xxxxxxx-xxxx-xxxxxxx-xxxx---------------|
G|---7777-5555555-7777-5555555-7777---------------|
C|------------------------------------------------|

---------------------------------------------------------------------------

Both Guitars
D|---------------------------------------------------------------------|
A|---------------------------------------------------------------------|
F|---------------------------------------------------------------------|
C|---------------------------------------------------------------------|
G|--1212121212121212121212121212121012121212121212121010101010101010---|
C|--1212121212121212121212121212121012121212121212121010101010101010---|


D|-----------------------------------------|
A|-----------------------------------------|
F|-----------------------------------------|
C|-----------------------------------------|
G|---888888888888888788888888-10101010-----|
C|---888888888888888788888888-10101010-----|

D|--------------------------------------------------------|
A|--------------------------------------------------------|
F|-----------------10101010-----------9999999999999999----|
C|-----------------x-x-x-x------------xxxxxxxxxxxxxxxx----|
G|---0000-0000-00--8-8-8-8---0--0--0--7777777777777777----|
C|---0000-0000-00------------0--0--0----------------------|
     .... .... ..            .  .  .

D|-------------------------------------------------|
A|-------------------------------------------------|
F|-------------------------------------------------|
C|------------------------------------------2------|
G|---888888888888888888888888-5p0-7p0-8p7-3--------|
C|---888888888888888888888888----------------------|

---------------------------------------------------------------------------
Verse
I think both guitars play this

D|---17~----15~----20~----------------15~------------|
A|-----------------------18~----17~------------------|
F|---------------------------------------------------|
C|---------------------------------------------------|
G|---------------------------------------------------|
C|---------------------------------------------------|

D|---17~----15~----20~---18~----20~------------------|
A|---------------------------------------------------|
F|---------------------------------------------------|
C|---------------------------------------------------|
G|---------------------------------------------------|
C|---------------------------------------------------|
0:54  Rythem
D|---------------------------|
A|---------------------------|
F|---------------------------|
C|---------------------------|
G|---8888888888888888--------|
C|---8888888888888888--------|

---------------------------------------------------------------------------
0:56
tremolo
     t     t   t   t     t   t   t     t   t   t     t
D|---17----15--13--17----15--18--17----15--13--17----20-----|
A|----------------------------------------------------------|
F|----------------------------------------------------------|
C|----------------------------------------------------------|
G|----------------------------------------------------------|
C|----------------------------------------------------------|

---------------------------------------------------------------------------
1:15
Pre-chorus
D|--------------------------------------------------|
A|--------------------------------------------------|
F|--------------------------------------------------|
C|--------------------------------------------------|
G|---5555555555555555-888888888888-------8----------|
C|---5555555555555555-888888888888-10h12------------|


D|------------------------------------------------------------------------|
A|------------------------------------------------------------------------|
F|------------------------------------------------------------------------|
C|------------------------------------------------------------------------|
G|---121212121212121212121212-------8-10101010101010101010101010101010----|
C|---121212121212121212121212-10h12---10101010101010101010101010101010----|


D|----------------------------------|
A|----------------------------------|
F|----------------------------------|
C|----------------------------------|
G|---5-5-5-5-5-5-5-5-888888888------|
C|---5-5-5-5-5-5-5-5-888888888------|

---------------------------------------------------------------------------
Chorus   x2
Both Guitars  
D|--------------------------------------------------------------------|
A|--------------------------------------------------------------------|
F|--------------------------------------------------------------------|
C|---7777777777777777-101010101010------------------------------------|
G|---5555555555555555-8-8-8-8-8-8--10101010101010-8888888888888888----|
C|---------------------------------10101010101010-8888888888888888----|

D|------------------------------|
A|------------------------------|
F|------------------------------|
C|------------------------------|
G|---88888888-10-10--7p0-8p7----|
C|---88888888-10-10-------------|
                 .
---------------------------------------------------------------------------
1:46 
post-chorus
D|-----------------------------------------------|
A|-----------------------------------------------|
F|-----------------------------------------------|
C|-------------10-7-----10-7---------------------|
G|---8~----5~--------7~-------8~----5~-----------|
C|---8~----5~--------7~-------8~----5~-----------|

---------------------------------------------------------------------------
Breakdown (part 1)

D|---------------------------------------------------------|
A|---------------------------------------------------------|
F|--------------10101010101010101010101010101010-----------|
C|--------------x-x-x-x-x-x-x-x-x-x-x-x-x-x-x-x------------|
G|---000-00000--8-8-8-8-8-8-8-8-8-8-8-8-8-8-8-8---00-00----|
C|---000-00000------------------------------------00-00----|
     ... .....                                    .. ..
---------------------------------------------------------------------------
Breakdown (part 2)     Play x2

D|-----------------------------------------------------------|
A|-----------------------------------------------------------|
F|-----------------------------------------------------------|
C|-----------------------------------------------------------|
G|---000-000-0-0-0-0-000-000-000-000-00-000-000-10101010-----|
C|---000-000-0-0-0-0-000-000-000-000-00-000-000-10101010-----|
     ... ... . . . . ... ... ... ... .. ... ...

D|-------------------------------------------------|
A|-------------------------------------------------|
F|---------------------------------9999------------|
C|---------------------------------xxxx------------|
G|---0-0~--00--0-0-0-0-000-000-000-7777------------|
C|---0-0~--00--0-0-0-0-000-000-000-----------------|
     .     ..  . . . . ... ... ...
---------------------------------------------------------------------------
"this is what you call love..."
D|-------------------------|
A|-------------------------|
F|-------------------------|
C|-------------------------|
G|------8~-----------------|
C|------8~-----------------|

Breakdown (part 3)
2:21
D|--------------------------------------------------------|
A|--------------------------------------------------------|
F|--------------------------------------------------------|
C|--------------------------------------------------------|
G|---000-000-000-000-00-0-0-0-0-0-0-0-0-0-0-00-0-0-0-0----|
C|---000-000-000-000-00-0-0-0-0-0-0-0-0-0-0-00-0-0-0-0----|
     ... ... ... ... .. . . . . . . . . . . .. . . . .

D|-----------------------------------------------------------|
A|-----------------------------------------------------------|
F|-----------------------------------------------------------|
C|-----------------------------------------------------------|
G|---000-000-000-000-00-0-0-0-0-88888888-1010101010101010----|
C|---000-000-000-000-00-0-0-0-0-88888888-1010101010101010----|
     ... ... ... ... .. . . . . 
--------------------------------------------------------------------------
2:30
Both Guitars    play x2
D|---------------------------------------------------------------------|
A|---------------------------------------------------------------------|
F|---------------------------------------------------------------------|
C|---------------------------------------------------------------------|
G|--1212121212121212121212121212121012121212121212121010101010101010---|
C|--1212121212121212121212121212121012121212121212121010101010101010---|

D|-----------------------------------------|
A|-----------------------------------------|
F|-----------------------------------------|
C|-----------------------------------------|
G|---888888888888888788888888-10101010-----|
C|---888888888888888788888888-10101010-----|

-------------------------------------------------------------------------
2:48 
     "one more nail in the coffin..."
D|----------------------------------------------------------|
A|----------------------------------------------------------|
F|----------------------------------------------------------|
C|----------------------------------------------------------|
G|---555555555555555555555555-88888888-0000000000000000-----|
C|---555555555555555555555555-88888888-0000000000000000-----|

D|----------------------------------------------------------|
A|----------------------------------------------------------|
F|----------------------------------------------------------|
C|----------------------------------------------------------|
G|---10101010101010101010101010101010-5555555555555555-8~---|
C|---10101010101010101010101010101010-5555555555555555-8~---|

Lead
     t     t  t   t   t   t   t  t    
D|---17-------13-----------------17---------------|
A|---------15-----10--11--13-----------15---------|
F|----------------------------9-------------------|
C|------------------------------------------------|
G|------------------------------------------------|
C|------------------------------------------------|

3:02
both guitars
D|-----------------------------------------------------------------------|
A|-----------------------------------------------------------------------|
F|-----------------------------------------------------------------------|
C|-----------------------------------------------------------------------|
G|---------8-121212121212121212121212-------8-101010101010101010101010---|
C|---10h12---121212121212121212121212-10h12---101010101010101010101010---|

3:07    Repeat Chorus

3:30
 play these notes
D|-----------------------|
A|-----6---5-------------|
F|-----5---5-------------|
C|-----------------------|
G|-----------------------|
C|-----------------------|

---------------------------------------------------------------------------
3:47        Play this x2
"every second every minute every hour every day..."
Rythem
D|----------------------------------------|
A|----------------------------------------|
F|----------------------------------------|
C|----------------------------------------|
G|---8888-8888888-8888-8888888-101010-----|
C|---8888-8888888-8888-8888888-101010-----|
Lead
D|----------------------------------------|
A|----------------------------------------|
F|---9999-7777777-9999-7777777-9-9-9------|
C|---xxxx-xxxxxxx-xxxx-xxxxxxx-x-x-x------|
G|---7777-5555555-7777-5555555-7-7-7------|
C|----------------------------------------|
Rythem 
   "it never ends...it never ends..."
D|----------------------------------------|
A|----------------------------------------|
F|----------------------------------------|
C|---7777-7777777-7777-77777777-5-5-5-----|
G|---5555-5555555-5555-55555555-3-3-3-----|
C|----------------------------------------|
Lead
D|---------------------------------------------------------------|
A|---------------------------------------------------------------|
F|---10101010-1010101010101010-10101010-1010101010101010-9999----|
C|---x-x-x-x--x-x-x-x-x-x-x-x--x-x-x-x--x-x-x-x-x-x-x-x--xxxx----|
G|---8-8-8-8--8-8-8-8-8-8-8-8--8-8-8-8--8-8-8-8-8-8-8-8--7777----|
C|---------------------------------------------------------------|

---------------------------------------------------------------------------
Outro
Rythem
D|------------------------------------------|
A|------------------------------------------|
F|------------------------------------------|
C|------------------------------------------|
G|---8888-8888888-8888-8888888-101010~~-----|
C|---8888-8888888-8888-8888888-101010~~-----|
Lead
D|-----------------------------------------|
A|-----------------------------------------|
F|---9999-7777777-9999-7777777-9-9-9~~-----|
C|---xxxx-xxxxxxx-xxxx-xxxxxxx-x-x-x-------|
G|---7777-5555555-7777-5555555-7-7-7~~-----|
C|-----------------------------------------|

It Never Ends


************************************

| .   palm mute
| t   tremolo
| /   slide up
| \   slide down
| h   hammer-on
| p   pull-off
| ~   vibrato
| +   harmonic
| x   Mute note
| b   Bend
| pb  Pre-bend
| br  Bend release
| pbr Pre-bend release
| brb Bend release bend

************************************
Tap to rate this tab
# A B C D E F G H I J K L M N O P Q R S T U V W X Y Z