Song name
# A B C D E F G H I J K L M N O P Q R S T U V W X Y Z

Bring Me The Horizon - Blessed With A Curse tab

Bring Me The Horizon, Blessed With  A Curse Tab 

Verse
Guitar 1

D|----------------|---------------------------|
A|----------------|---------------------------|
F|-5----4----2----|---5----7----12------------| X3   
C|-7----5----3----|---7----9----14----10------|
G|----------------|---------------------------|
C|----------------|---------------------------|

D|----------------|---------------------------------------------|
A|----------------|---------------------------------------------|
F|-5----4----2----|---5----7------------------------------------|
C|-7----5----3----|---7----9----3-3-3-3-3-3-3-3-3-3-3-3-3-3-3-3-|
G|----------------|-------------3-3-3-3-3-3-3-3-3-3-3-3-3-3-3-3-|
C|----------------|-------------3-3-3-3-3-3-3-3-3-3-3-3-3-3-3-3-|
                            
Guitar 2

D|----------------|---------------------------|
A|----------------|---------------------------|
F|-5----4----2----|---5~---7~---12------------| X4  
C|-7----5----3----|---7~---9~---14----10------|
G|----------------|---------------------------|
C|----------------|---------------------------|
                            

Chorus
Both Guitars 

D|----------------------------------------------|
A|----------------------------------------------|
F|-------9999-------9999-------9999101010109999-| X2
C|-7~-77-xxxx-5~-55-xxxx-3~-33------------------|
G|-7~-77-7777-5~-55-7777-3~-33-7777-8-8-8-87777-|
C|-7~-77------5~-55------3~-33------------------|

Chorus Outro 
D|----------------|
A|----------------|
F|-5----4----2----|
C|-7----5----3----|
G|----------------|
C|----------------|

Verse 2 
Both Guitars

D|----------------|-------------------------|
A|----------------|-------------------------|
F|-5----4----2~---|---5----7----12----------| x2
C|-7----5----3~---|---7----9----14----10----|
G|----------------|-------------------------|
C|----------------|-------------------------|

Bridge
Guitar 1

D|------------------|-------------|
A|------------------|-------------|
F|------------------|-------------| x2
C|-3-----5----7-----|-5-----3-----|
G|-3-X12-5-X4-7-X16-|-5-X16-3-X16-|
C|-3-----5----7-----|-5-----3-----|

Guitar 2 (Fast Picking)

D|-13-12--15-17--------12-13--|--13-12--15--17--------*12b13--| *gradually 
A|--------------13-12---------|----------------13-12----------| bend while
F|----------------------------|-------------------------------| still 
C|----------------------------|-------------------------------| picking fast
G|----------------------------|-------------------------------|
C|----------------------------|-------------------------------|

Chorus
Both Guitars 

D|----------------------------------------------|
A|----------------------------------------------|
F|-------9999-------9999-------9999101010109999-| X4
C|-7~-77-xxxx-5~-55-xxxx-3~-33------------------|
G|-7~-77-7777-5~-55-7777-3~-33-7777-8-8-8-87777-|
C|-7~-77------5~-55------3~-33------------------|




Bridge 2 part 1
Guitar 1

D|----------------------|
A|----------------------|
F|----------------------|
C|-7----5----3-----5----| 2X
G|-7-X8-5-X8-3-X12-5-X4-|
C|-7----5----3-----5----|

Guitar 2

D|-------------------|--------------------|-----------------------------12|
A|-------------------|--------------------|--------------------------10---|
F|12-----------------|12-----------------9|12-----------------------------|
C|---10-12----9h10-9-|---10-12----9h10-9--|---10-12----9h10-9-------------|
G|---------10--------|---------10---------|---------10--------10p8-8------|
C|-------------------|--------------------|-------------------------------|

Bridge 2 part 2
Guitar 1

D|-------------------------------------------|
A|-------------------------------------------|
F|------9999------9999------9999101010109999-|
C|-7777-xxxx-5555-xxxx-3333-xxxx-x-x-x-xxxxx-| 2X
G|-7777-7777-5555-7777-3333-7777-8-8-8-87777-|
C|-7777------5555------3333------------------|

Not too sure about the outro , if anyone knows it please comment 

Tap to rate this tab
# A B C D E F G H I J K L M N O P Q R S T U V W X Y Z