Song name
# A B C D E F G H I J K L M N O P Q R S T U V W X Y Z

Bring Me The Horizon - Home Sweet Hole tab

-----------------------------------------------------------------------------
                   Home Sweet Hole - Bring Me The Horizon
-----------------------------------------------------------------------------
Tabbed by:
Email:
not exact, but all different parts
Tuning:

e|---------------------------------------------------------------------------
B|--------------------------------------------------------------------------|
G|--------------------------------------------------------------------------|
D|--------------------------------------------------------------------------|
A|--------------------------------------------------------------------------|
E|-10-12-12-10-12-12-12-12-12-12-12-12-12-12-12-----------------------------|

e|---------------------------------------------------------------------------
B|---------------------------------------------------------------------------
G|--------------------------------------------------------------------------|
D|------------------------------------0-------------------------------------|
A|------------------------------------0-------------------------------------|
E|11-11-11-11-11-11-11-11-11-11-11-11-0-------------------------------------|

e|--------------------------------------------------------------------------|
B|--------------------------------------------------------------------------|
G|--------------------------------------------------------------------------|
D|-10-12-12-10-12-12---10---12-12-10-12-12----------------------------------|
A|-10-12-12-10-12-12---10---12-12-10-12-12----------------------------------|
E|-10-12-12-10-12-12---10---12-12-10-12-12----------------------------------|

e|--------------------------------------------------------------------------|
B|--------------------------------------------------------------------------|
G|--------------------------------------------------------------------------|
D|----5-5--5-5--5-5--5-5----------------------------------------5------10---|
A|-5--5-5--5-5--5-5--5-5--7-8----------10-10-10-10------------5-5-10--------|
E|-5--5-5--5-5--5-5--5-5--7-8--8-8-8-8-------------8-8-8-8-7--5-5----11---11|

e|--------------------------------------------------------------------------|
B|--------------------------------------------------------------------------|
G|--------------------------------------------------------------------------|
D|-11-----10-----------------------------------------------5-----------11---|
A|-11-----10-----7----------10-10-10-10---------7----------5-----------11---|
E|-11-----10-----7--8-8-8-8-------------8-8-8-8-7----------5-----------11---|

e|-17----15-18----17-15-18-17------15---18-------17---15---21---------------|
B|----15----14-18-------------15--------14---18-----------------------------|
G|--------------------------------------------------------------------------|
D|---------------------------------------------------------------8--7-------|
A|---------------------------------------------------------------8--7-------|
E|---------------------------------------------------------------8--7-/-10--|

e|--------------------------------------------------------------------------|
B|--------------------------------------------------------------------------|
G|--------------------------------------------------------------------------|
D|-12-11--8--7----------10-12-12-10-12-12-0--0--0--0-0-0--------------------|
A|-12-11--8--7----------10-12-12-10-12-12-0--0--0--0-0-0--------------------|
E|-12-11--8--7-/-10-----10-12-12-10-12-12-0--0--0--0-0-0--0-0-0--0--0--0-0-0|

e|--------------------------------------------------------------------------|
B|---------------------------------------------16---------------------------|
G|--------------------------------------------------------------------------|
D|---------------------------------------------------12-------------12-12-12|
A|---------------------------------------------------12-------12-12---------|
E|-0-0-0--0-0-0--0---11-11-11-11-13-13-13------13----12-10-10---------------|

e|--------------------------------------------------------------------------|
B|--------------------------------------------------------------------------|
G|--------------------------------------------------------------------------|
D|-------8-8-8-5------------10-8-8-8---------12-----8-----11----------------|
A|---8-8-------5------10-10----------10------12-----8-----11----------------|
E|-8-----------5--8-8-------------------8-10-12-----8-----11----------------|

e|--------------------------------------------------------------------------|
B|--------------------------------------------------------------------------|
G|--------------------------------------------------------------------------|
D|--------------------------------------------------------------------------|
A|--------------------------------------------------------------------------|
E|-12-0-12-0-12-12-0-12--0-12-0-12-12-0--12--0-12-0-12-12-0-10--0-10-0-10-10|


e|--------------------------------------------------------------------------|
B|--------------------------------------------------------------------------|
G|--------------------------------------------------------------------------|
D|--------------------------------------------------------------------------|
A|--------------------------------------------------------------------------|
E|-0-8--0-8-0-8-8-0-8--0-8-0-8-8-0--8--0-8-0-8-8-0-10--0-10-0-10-10-0-------|


e|--------------------------------------------------------------------------|
B|--------------------------------------------------------------------------|
G|--------------------------------------------------------------------------|
D|--------------------------------------------------------------------------|
A|--------------------------------------------------------------------------|
E|-12-0-12-0-12-12-0-12-\-0--12--0-12-0-12-12-0-10--0-10-0-10-10-0----------|


e|--------------------------------------------------------------------------|
B|--------------------------------------------------------------------------|
G|--------------------------------------------------------------------------|
D|-------------------------------------------------------------8-7-12-8-7---|
A|-------------------------------------------------------------8-7-12-8-7---|
E|-8--0-8-0-8-8-0-8-/-0--8--0-8-0-8-8-0-10--0-10-0-10-10-0-----8-7-12-8-7---|


e|-1-----1-----1-----1------------------------------------------------------|
B|-2-----2-----2-----2------------------------------------------------------|
G|-3-----3-----3-----3------------------------------------------------------|
D|-3-----4-----3-----4-----0--8--5--7--8--5--0--8--5--7--8--5--0------------|
A|-1-----1-----1-----1-----0--8--5--7--8--5--0--8--5--7--8--5--0------------|
E|-------------------------0--8--5--7--8--5--0--8--5--7--8--5--0------------|


e|--------------------------------------------------------------------------|
B|--------------------------------------------------------------------------|
G|--------------------------------------------------------------------------|
D|-------------12-12-12------------10-10-10--5--8--8-8-8-8------------------|
A|-------12-12---------------10-10-----------5--8--8-8-8-8-10-10-10-10------|
E|-10-10-----------------8-8-----------------5--8--8-8-8-8-------------8-8-8|


e|--------------------------------------------------------------------------|
B|--------------------------------------------------------------------------|
G|-----10-------------------------------------------------------------------|
D|-----12--5--8-----------------------10------------------------------------|
A|-----12--5--8-----------------10------------------------------------------|
E|-8-7-12--5--8-8-8-8-8-8-8-8-8----11----10---------------------------------|


e|--------------------------------------------------------------------------|
B|--------------------------------------------------------------------------|
G|--------------------------------------------------------------------------|
D|----------------------------------------------------------12-12-12-12-12-x|
A|-12-12-12-12-12-12-12-12-12-12-12-12-12-12-12-12-12-12----12-12-12-12-12-x|
E|-12-12-12-12-12-12-12-12-12-12-12-12-12-12-12-12-12-12----12-12-12-12-12-x|

************************************
| /   slide up
| \   slide down
| h   hammer-on
| p   pull-off
| ~   vibrato
| +   harmonic
| x   Mute note
| b   Bend
| pb  Pre-bend
| br  Bend release
| pbr Pre-bend release
| brb Bend release bend

************************************
Tap to rate this tab
# A B C D E F G H I J K L M N O P Q R S T U V W X Y Z