Song name
# A B C D E F G H I J K L M N O P Q R S T U V W X Y Z

Bring Me The Horizon - Chelsea Smile tab

2:38 - 2:47

|--------18----17----13----15----17--------------------------------------|
|--15--------------------------------------------------------------------|
|------------------------------------------------------------------------|
|------------------------------------------------------------------------|
|------------------------------------------------------------------------|
|------------------------------------------------------------------------|


2:48 - 2:57

|--------18----17--------------------------------------------------------|
|--15--------------------------------------------------------------------|
|------------------------------------------------------------------------|
|------------------------------------------------------------------------|
|------------------------------------------------------------------------|
|------------------------------------------------------------------------|


2:58 - 3:06

|------------------------------------------------------------------------|
|--15----17----18----17--------------------------------------------------|
|------------------------------------------------------------------------|
|------------------------------------------------------------------------|
|------------------------------------------------------------------------|
|------------------------------------------------------------------------|


3:07 - 3:17

|------------------------------------------------------------------------|
|--15----17----18----17----15--------------------------------------------|
|------------------------------------------------------------------------|
|------------------------------------------------------------------------|
|------------------------------------------------------------------------|
|------------------------------------------------------------------------|

*REPEAT EVERY NOTE AS NECESARY, EXCEPT THE LAST 15*
Tap to rate this tab
 
# A B C D E F G H I J K L M N O P Q R S T U V W X Y Z