Song name
# A B C D E F G H I J K L M N O P Q R S T U V W X Y Z

Bring Me The Horizon - Suicide Season tab

----------------------------------------------------------------------------
                  Bring Me the Horizon - Suicide Season
----------------------------------------------------------------------------

Tabbed by: Metalrock4ever

Tuning: CGCFAD

Intro:
D|-----------------------------------------|
A|-----------------------------------------|
F|-7777-7777-7777-7777-7777-7777-----------|
C|-7777-7777-7777-7777-7777-7777-5555-5555-|  x4
G|-5555-5555-5555-5555-xxxx-xxxx-5577-7755-|
C|---------------------8888-8888-5555-5555-|

Then...
D|-----------------------------------------|
A|-----------------------------------------|
F|-----------------------------------------|
C|-0000-0000-0000-0000-8888-8888-5555-5555-|
G|-0000-0000-0000-0000-8888-8888-5555-5555-|
C|-0000-0000-0000-0000-8888-8888-5555-5555-|

D|-----------------------------------------|
A|-----------------------------------------|
F|-9999-9999-9999-9999---------------------|
C|-0000-0000-0000-0000-8888-8888-5555-5555-|
G|-0000-0000-0000-0000-8888-8888-5577-7755-|
C|-0000-0000-0000-0000-8888-8888-5555-5555-|

D|-----------------------------------------|
A|-----------------------------------------|
F|-----------------------------------------|
C|-0000-0000-0000-0000-8888-8888-5555-5555-|
G|-0000-0000-0000-0000-8888-8888-5555-5555-|
C|-0000-0000-0000-0000-8888-8888-5555-5555-|

D|-----------------------------------------|
A|-----------------------------------------|
F|-9999-9999-9999-9999---------------------|
C|-0000-0000-0000-0000-8888-8888-5555-5555-|
G|-0000-0000-0000-0000-8888-8888-5577-7755-|
C|-0000-0000-0000-0000-8888-8888-5555-5555-|


Verse:
(Not sure about the notes for this part)
D|-----------------------------------------|
A|-----------------------------------------|
F|-7777-7777-7777-7777-7777-7777-----------|
C|-7777-7777-7777-7777-7777-7777-5555-5555-|  x4
G|-5555-5555-5555-5555-xxxx-xxxx-5555-5555-|
C|---------------------8888-8888-5555-5555-|

Solo Part:
D|-12-10~-15~-6~-6~-5~-10~-12-10~-15~-5~-8~-10~-|
A|----------------------------------------------|
F|----------------------------------------------|
C|----------------------------------------------|
G|----------------------------------------------|
C|----------------------------------------------|


Pre-Chorus:
D|--------------------------------------------------|
A|--------------------------------------------------|
F|---------------9999-9999--------------------------|
C|-8888-10101010-0000-0000-88-8-8-10101010-12121212-|
G|-8888-10101010-0000-0000-810108-10131310-12121212-|
C|-8888-10101010-0000-0000-88-8-8-10101010-12121212-|

Solo Part:
D|-13-12-13-12~-13-12-10~-13-12-13-12~-13-12-10-17~-13-12-13-12~-13-12-10~-|
A|-------------------------------------------------------------------------|
F|-------------------------------------------------------------------------|
C|-------------------------------------------------------------------------|
G|-------------------------------------------------------------------------|
C|-------------------------------------------------------------------------|


Chorus:
D|---------------------------------------------|
A|---------------------------------------------|
F|-9999-9999-9999-9999-------------------------|
C|-0000-0000-0000-0000-888-8--8-8-88-5555-5555-|  x2
G|-0000-0000-0000-0000-881010-101088-5577-7755-|
C|-0000-0000-0000-0000-888-8--8-8-88-5555-5555-|


Bridge:
D|-------------------------------------|
A|-------------------------------------|
F|-------------------------------------|
C|-1-1-1-0~-1-1-1-0~-1-1-1-0~-1-1-1-0~-|
G|-1-1-1-0~-1-1-1-0~-1-1-1-0~-1-1-1-0~-|
C|-1-1-1-0~-1-1-1-0~-1-1-1-0~-1-1-1-0~-|

Solo Part:
D|-----------------------------------------|
A|-----------------------------------------|
F|-8-8-8-7~-8-8-8h9-7~-8-8-8-7~-8-8-8h9-7~-|
C|-------0~---------0~-------0~---------0~-|
G|-------0~---------0~-------0~---------0~-|
C|-------0~---------0~-------0~---------0~-|


Then...
Guitar 1:
D|------------------------------------------------------------------------|
A|------------------------------------------------------------------------|
F|------------------------------------------------------------------------|
C|-0x0x0x0-0x0x0x0x-1x0x0x0x-0x0x0x0x-1x0x0x0x-0x0x0x0x-1x0x0x0x-0x0x0x0x-|
G|-0x0x0x0-0x0x0x0x-1x0x0x0x-0x0x0x0x-1x0x0x0x-0x0x0x0x-1x0x0x0x-0x0x0x0x-|
C|-0x0x0x0-0x0x0x0x-1x0x0x0x-0x0x0x0x-1x0x0x0x-0x0x0x0x-1x0x0x0x-0x0x0x0x-|

Guitar 2:
D|---------------------------------------|
A|-------------------3h4-----------------|
F|---------------------------------------|
C|-0x0x0x0x-0x0x0x0x-----0x0x0x-0x0x0x0x-|
G|-0x0x0x0x-0x0x0x0x-----0x0x0x-0x0x0x0x-|
C|-0x0x0x0x-0x0x0x0x-----0x0x0x-0x0x0x0x-|

D|-----------------------------------------|
A|-3h4-----------------3h4-3-3-3--3-3-3-3--|
F|-------------------------x-x-x--x-x-x-x--|
C|-----0x0x0x-0x0x0x0x-----0x0x0x-0x0x0x0x-|
G|-----0x0x0x-0x0x0x0x-----0x0x0x-0x0x0x0x-|
C|-----0x0x0x-0x0x0x0x-----0x0x0x-0x0x0x0x-|


Bridge 2:
Guitar 1:
D|-----------------------|
A|-----------------------|
F|-----------------------|
C|-3-0-0~-------1x1x1x1x-|
G|-3-0-0~-------1x1x1x1x-|
C|-3-0-0~-------1x1x1x1x-|

Guitar 2:
D|-----------------------------------------------------|
A|-----------------------------------------------------|
F|-----------------------------------------------------|
C|-3-0-0-3-0-0-3-0-1111-4444-3-0-0-3-0-0-3-0-6666-1111-|
G|-----------------------------------------------------|
C|-----------------------------------------------------|


Both Guitars:
D|--------------------------------------------------------------|
A|--------------------------------------------------------------|
F|--------------------------------------------------------------|
C|-3-0-0-3-0-0-3-0-1111-4444-3-0-0-3-0-0-3-0-6666-1~1~-1x1x1x1x-|  
G|-3-0-0-3-0-0-3-0-1111-4444-3-0-0-3-0-0-3-0-6666-1~1~-1x1x1x1x-|
C|-3-0-0-3-0-0-3-0-1111-4444-3-0-0-3-0-0-3-0-6666-1~1~-1x1x1x1x-|

D|-----------------------------------------------------------------|
A|-----------------------------------------------------------------|
F|-----------------------------------------------------------------|
C|-3-0-0-3-0-0-3-0-1111-4444-3-0-0-3-0-0-3-0-6666-1~1~-1x1x1x1x-0~-| 
G|-3-0-0-3-0-0-3-0-1111-4444-3-0-0-3-0-0-3-0-6666-1~1~-1x1x1x1x-0~-|
C|-3-0-0-3-0-0-3-0-1111-4444-3-0-0-3-0-0-3-0-6666-1~1~-1x1x1x1x-0~-|


Bridge 3:
Guitar 1:
D|-------------------------------------------------|  
A|------11111111-10101010-6666---------------------| <-they are 11's and 10's
F|-----------------------------7777-7777-7777-7777-|
C|-8888--------------------------------------------|   x14
G|-------------------------------------------------|
C|-------------------------------------------------|

Guitar 2 Riff:
(Repeat the riff throughout this next part 12 times)
D|-12----12----12----12----13----13----13----13----|
A|----10----10----10----10----10----10----10----10-|
F|-------------------------------------------------|
C|-------------------------------------------------|
G|-------------------------------------------------|
C|-------------------------------------------------|

D|---------------------------------------------|
A|-13----13----13----13----10---10---10---10---|
F|----10----10----10----10----7----7----7----7-|
C|---------------------------------------------|
G|---------------------------------------------|
C|---------------------------------------------|

Guitar 3:
(Listen to music to know when you come in)
D|-12~-13~-17~-15~-|
A|-----------------|
F|-----------------|
C|-----------------|
G|-----------------|
C|-----------------|


Then...
Guitar 1:
D|----18-17-13--------|
A|-------------15-15+-|
F|-15-----------------|
C|--------------------|  x8
G|--------------------|
C|--------------------|

Guitar 2 Riff:
(Play this after the riff is played twice. Repeat riff 6 times)
D|-12----12----12----12----13----13----13----13----|
A|----10----10----10----10----10----10----10----10-|
F|-------------------------------------------------|
C|-------------------------------------------------|
G|-------------------------------------------------|
C|-------------------------------------------------|

D|---------------------------------------------|
A|-13----13----13----13----10---10---10---10---|
F|----10----10----10----10----7----7----7----7-|
C|---------------------------------------------|
G|---------------------------------------------|
C|---------------------------------------------|

Guitar 3:
D|-------------------------|
A|-------------------------|
F|---------------9988-8899-|
C|-8888-10101010-0000-0000-|  x8
G|-8888-10101010-0000-0000-|
C|-8888-10101010-0000-0000-|


Outro:
(Fade out on each repeat)
D|-------------------------------------------------|  
A|------11111111-10101010-6666---------------------| <-they are 11's and 10's
F|-----------------------------7777-7777-7777-7777-|
C|-8888--------------------------------------------|  x4
G|-------------------------------------------------|
C|-------------------------------------------------|


End on:
(Get quieter when playing this)
D|-----------|
A|-7777-7777-|
F|-----------|
C|-----------|
G|-----------|
C|-----------|

************************************

| /   slide up
| \   slide down
| h   hammer-on
| ~   vibrato
| +   harmonic
| x   Mute note
| b   Bend

************************************

If you have any comments/corrections, please say in either the comments box 
or leave me a message. Good luck and enjoy!     
Tap to rate this tab
 
# A B C D E F G H I J K L M N O P Q R S T U V W X Y Z