Song name
# A B C D E F G H I J K L M N O P Q R S T U V W X Y Z

Bring Me The Horizon - Hospital For Souls tab

Tuning: Drop D

As usual, I suggest to listen the song for a corret strumming

Intro

e|-12t--13t--10t-------------------------|
B|----------------10t--------------------|
G|---------------------------------------|
D|---------------------------------------|
A|---------------------------------------|
D|---------------------------------------|

e|------------------------------------------------------------------|
B|------------------------------------------------------------------|
G|-9-9-9-9-9-9-9--1010101010101010-7-7-7-7-7-7-7-7-2-2-2-2-2-2-2-2--|
D|-7-7-7-7-7-7-7--7-7-7-7-7-7-7-7--5-5-5-5-5-5-5-5-0-0-0-0-0-0-0-0--|
A|-7-7-7-7-7-7-7--7-7-7-7-7-7-7-7--5-5-5-5-5-5-5-5-0-0-0-0-0-0-0-0--|
D|-7-7-7-7-7-7-7--7-7-7-7-7-7-7-7--5-5-5-5-5-5-5-5-0-0-0-0-0-0-0-0--|

Verse

e|-------------------------------------|
B|-13(13)-15(15)-17(17)---13-12--------|
G|------------------------------14-----|
D|-------------------------------------|
A|-------------------------------------|
D|-------------------------------------|

e|-------------------------------------|
B|-13(13)-15(15)-17(17)---13-12--------|
G|------------------------------12-----|
D|-------------------------------------|
A|-------------------------------------|
D|-------------------------------------|

Pre-chorus

e|--------------------------------|
B|--------------------------------|
G|--------------------------------| x2
D|--------------------------------|
A|-5t-----------7t---8t-----------|
D|--------------------------------|

Chorus

e|------------------------------------------------------------------|
B|------------------------------------------------------------------|
G|-9-9-9-9-9-9-9--1010101010101010-7-7-7-7-7-7-7-7-2-2-2-2-2-2-2-2--|   x2
D|-7-7-7-7-7-7-7--7-7-7-7-7-7-7-7--5-5-5-5-5-5-5-5-0-0-0-0-0-0-0-0--|
A|-7-7-7-7-7-7-7--7-7-7-7-7-7-7-7--5-5-5-5-5-5-5-5-0-0-0-0-0-0-0-0--|
D|-7-7-7-7-7-7-7--7-7-7-7-7-7-7-7--5-5-5-5-5-5-5-5-0-0-0-0-0-0-0-0--|

Post-chorus

1st guitar

e|-------------------------------------------------------------------------|
B|-------------------------------------------------------------------------|
G|-------------------------------------------------------------------------|
D|-3-3-3-3-3-3-3-3-3-3-3-3-3-3-3-3-3-3-2-2-2-2-2-2-2-2-2-5-5-5-5-5-5-5-5-5-|
A|-3-3-3-3-3-3-3-3-3-3-3-3-3-3-3-3-3-3-2-2-2-2-2-2-2-2-2-5-5-5-5-5-5-5-5-5-|
D|-3-3-3-3-3-3-3-3-3-3-3-3-3-3-3-3-3-3-2-2-2-2-2-2-2-2-2-5-5-5-5-5-5-5-5-5-|

e|-12b-----15b--------------------|
B|-----13------12-----------------|
G|-----------------14-------------|
D|--------------------------------|
A|--------------------------------|
D|--------------------------------|

Brdige

"Hold me close...."

e|--------------------------------|
B|------------3-------------------|
G|-----2--------------------------|
D|------------0-------------------|
A|-----0--------------------------|
D|--------------------------------|

(I'm not sure about this part...)

e|--------------------------------|
B|--------------------------------|
G|-2t----7t-----9t------7t--------|
D|-xt----xt-----xt------xt--------|
A|-0t----5t-----7t------5t--------|
D|--------------------------------|
Tap to rate this tab
 
# A B C D E F G H I J K L M N O P Q R S T U V W X Y Z