Song name
# A B C D E F G H I J K L M N O P Q R S T U V W X Y Z

Bring Me The Horizon - Hospital For Souls tab

Hospital For Souls by Bring Me The Horizon Tab

This is my first tab, so yeah. Hope you like it. If you notice anything incorrect or 
whatever Email me at Hogan4281@yahoo.com


Tuning- Drop C

Intro
Guitar 1   (0:30) Play through twice
E|--14--14b--12------|
B|---------------12--|
G|-------------------|
D|-------------------|
A|-------------------|
E|-------------------|

Interlude (Intro continues in background)

Guitar 1 (0:58) Play through twice
E|----------------------------------------------------------------------------|
B|----------------------------------------------------------------------------|
G|-11-11-11-11-11-11-11-11-11-11-11-11----12-12-12-12-12-12-12-12-12-12-12-12-|
D|-x--x--x--x--x--x--x--x--x--x--x--x-----x--x--x--x--x--x--x--x--x--x--x--x--|
A|-9--9--9--9--9--9--9--9--9--9--9--9-----10-10-10-10-10-10-10-10-10-10-10-10-|
E|----------------------------------------------------------------------------|



E|---------------------------------------------------------------------------|
B|---------------------------------------------------------------------------|
G|--9--9--9--9--9--9--9--9--9--9--9--9----4--4--4--4--4--4--4--4--4--4--4--4-|
D|--x--x--x--x--x--x--x--x--x--x--x--x----x--x--x--x--x--x--x--x--x--x--x--x-|
A|--7--7--7--7--7--7--7--7--7--7--7--7----2--2--2--2--2--2--2--2--2--2--2--2-|
E|---------------------------------------------------------------------------|


Guitar 2 (0:58)   Play through twice
E|--------------------------------------------------------------------------|
B|--------------------------------------------------------------------------|
G|--------------------------------------------------------------------------|
D|--9--9--9--9--9--9--9--9--9--9--9--9--9--9--9--9--9--9--9--9--9--9--9--9--|
A|--9--9--9--9--9--9--9--9--9--9--9--9--9--9--9--9--9--9--9--9--9--9--9--9--|
E|--9--9--9--9--9--9--9--9--9--9--9--9--9--9--9--9--9--9--9--9--9--9--9--9--|



E|---------------------------------------------------------------------------|
B|---------------------------------------------------------------------------|
G|---------------------------------------------------------------------------|
D|--7--7--7--7--7--7--7--7--7--7--7--7----2--2--2--2--2--2--2--2--2--2--2--2-|
A|--7--7--7--7--7--7--7--7--7--7--7--7----2--2--2--2--2--2--2--2--2--2--2--2-|
E|--7--7--7--7--7--7--7--7--7--7--7--7----2--2--2--2--2--2--2--2--2--2--2--2-|


Verse (1:42)  Play through twice
E|---------------------------------------------------------------------|
B|-15-15--17-17---19------15-14--------15-15--17-17--19-----15-14------|
G|------------------------------16--------------------------------14---|
D|---------------------------------------------------------------------|
A|---------------------------------------------------------------------|
E|---------------------------------------------------------------------|


Pre-Chorus (2:08)
E|--------------------------------------|
B|--------------------------------------|
G|-----------------12-12-11-9-----------|
D|--------------------------------------|
A|-7------9-10--------------7------9-10-|
E|--------------------------------------|

Chorus
Guitar 1 (2:35)
E|----------------------------------------------------------------------------|
B|----------------------------------------------------------------------------|
G|-11-11-11-11-11-11-11-11-11-11-11-11----12-12-12-12-12-12-12-12-12-12-12-12-|
D|-x--x--x--x--x--x--x--x--x--x--x--x-----x--x--x--x--x--x--x--x--x--x--x--x--|
A|-9--9--9--9--9--9--9--9--9--9--9--9-----10-10-10-10-10-10-10-10-10-10-10-10-|
E|----------------------------------------------------------------------------|



E|---------------------------------------------------------------------------|
B|---------------------------------------------------------------------------|
G|--9--9--9--9--9--9--9--9--9--9--9--9----4--4--4--4--4--4--4--4--4--4--4--4-|
D|--x--x--x--x--x--x--x--x--x--x--x--x----x--x--x--x--x--x--x--x--x--x--x--x-|
A|--7--7--7--7--7--7--7--7--7--7--7--7----2--2--2--2--2--2--2--2--2--2--2--2-|
E|---------------------------------------------------------------------------|


Guitar 2 (2:35)
E|--------------------------------------------------------------------------|
B|--------------------------------------------------------------------------|
G|--------------------------------------------------------------------------|
D|--9--9--9--9--9--9--9--9--9--9--9--9--9--9--9--9--9--9--9--9--9--9--9--9--|
A|--9--9--9--9--9--9--9--9--9--9--9--9--9--9--9--9--9--9--9--9--9--9--9--9--|
E|--9--9--9--9--9--9--9--9--9--9--9--9--9--9--9--9--9--9--9--9--9--9--9--9--|



E|---------------------------------------------------------------------------|
B|---------------------------------------------------------------------------|
G|---------------------------------------------------------------------------|
D|--7--7--7--7--7--7--7--7--7--7--7--7----2--2--2--2--2--2--2--2--2--2--2--2-|
A|--7--7--7--7--7--7--7--7--7--7--7--7----2--2--2--2--2--2--2--2--2--2--2--2-|
E|--7--7--7--7--7--7--7--7--7--7--7--7----2--2--2--2--2--2--2--2--2--2--2--2-|


Guitar 1 (3:03)
E|---------------------------------------------------------------------|
B|---------------------------------------------------------------------|
G|---------------------------------------------------------------------|
D|-5-5-5-5-5-5-5-5-5-5-5-5-5-5-5-5---4-4-4-4-4-4-4-4---7-7-7-7-7-7-7-7-|
A|-5-5-5-5-5-5-5-5-5-5-5-5-5-5-5-5---4-4-4-4-4-4-4-4---7-7-7-7-7-7-7-7-|
E|-5-5-5-5-5-5-5-5-5-5-5-5-5-5-5-5---4-4-4-4-4-4-4-4---7-7-7-7-7-7-7-7-|


Bridge
Guitar 1 (3:35)
E|-------------------------------------------------------------------------|
B|-------------------------------------------------------------------------|
G|-4---------4---------4--------4-----9-----4-----9-----4-----9-----12-----|
D|-x---------x---------x--------x-----x-----x-----x-----x-----x-----x------|
A|-2---------2---------2--------2-----7-----2-----7-----2-----7-----10-----|
E|-------------------------------------------------------------------------|


Guitar 1 (4:28)
E|---------------------------------------------|
B|---------------------------------------------|
G|-4-----9-----4-----9-----4-----9----12-----9-|
D|-x-----x-----x-----x-----x-----x----x------x-|
A|-2-----7-----2-----7-----2-----7----10-----7-|
E|---------------------------------------------|


Guitar 1  (5:30) Play through twice
*Notes in paranthesis may or may not be played, but i like them
E|------------------------------------------------------|
B|------------------------------------------------------|
G|------------------------------------------------------|
D|----(4)---(6)---(11)---(9)---(4)---(6)---(2)---(9)----|
A|-----2-----4-----9------7-----2-----4-----0-----7-----|
E|------------------------------------------------------|
Tap to rate this tab
 
# A B C D E F G H I J K L M N O P Q R S T U V W X Y Z