Song name
# A B C D E F G H I J K L M N O P Q R S T U V W X Y Z

Bring Me The Horizon - It Never Ends tab

-------------------------------------------------------------------------------
                             It Never Ends - Bring Me The Horizon
-------------------------------------------------------------------------------
Tabbed by:BringMeThatPick
E-mail:la.athlete777@gmail.com
Accuracy:100%
Tuning:Drop C (CGCFAD)
Rate/Comment, it's my first tab :D

D|-------------------------|-------------------------|-----------------------|
A|-------------------------|-------------------------|-----------------------|
F|--5--5--5--5--5--5--5--5-|--5--5--5--5--5--5--5--5-|-----------------------|
C|--5--5--5--5--5--5--5--5-|--5--5--5--5--5--5--5--5-|-----------------------|
G|--3--3--3--3--3--3--3--3-|--3--3--3--3--3--3--3--3-|-----------------------|
C|-------------------------|-------------------------|-----------------------|

D|-------------------------|-------------------------|-----------------------|
A|-------------------------|-------------------------|-----------------------|
F|--7--7--7--7--7--7--7--7-|--7--7--7--7--7--7--7--7-|-----------------------|
C|--7--7--7--7--7--7--7--7-|--7--7--7--7--7--7--7--7-|-----------------------|
G|--5--5--5--5--5--5--5--5-|--5--5--5--5--5--5--5--5-|-----------------------|
C|-------------------------|-------------------------|-----------------------|

D|---------------------------|-------------------------|---------------------|
A|---------------------------|-------------------------|---------------------|
F|-REST--7--7--7--7--7--7--7-|--5--5--5--5--5--5--5--5-|---------------------|
C|-------7--7--7--7--7--7--7-|--5--5--5--5--5--5--5--5-|---------------------|
G|-------5--5--5--5--5--5--5-|--3--3--3--3--3--3--3--3-|---------------------|
C|---------------------------|-------------------------|---------------------|


D|------------------------------------------|--------------------------------|
A|------------------------------------------|--------------------------------|
F|-3--3--3--3-REST--3--3--3--3--3--3--3-----|--5-----5-----5-----5-----------|
C|-3--3--3--3-------3--3--3--3--3--3--3--x2-|--5-----5-----5-----5-----------|
G|-1--1--1--1-------1--1--1--1--1--1--1-----|--3-----3-----3-----3-----------|
C|------------------------------------------|--------------------------------|

D|------------------------|-------------------------|------------------------|
A|------------------------|-------------------------|------------------------|
F|-7--7--7--7--7--7--7--7-|--7--7--7--7--7--7--7--7-|------------------------|
C|-7--7--7--7--7--7--7--7-|--7--7--7--7--7--7--7--7-|------------------------|
G|-5--5--5--5--5--5--5--5-|--5--5--5--5--5--5--5--5-|------------------------|
C|------------------------|-------------------------|------------------------|

D|---------------------------|-----------------------------|-----------------|
A|---------------------------|-----------------------------|-----------------|
F|-REST--7--7--7--7--7--7--7-|--5-----------5------------5-|-----------------|
C|-------7--7--7--7--7--7--7-|--5-----------5------------5-|-----------------|
G|-------5--5--5--5--5--5--5-|--3-----------3------------3-|-----------------|
C|---------------------------|-----------------------------|-----------------|

D|----------------------------------------------|----------------------------|
A|----------------------------------------------|----------------------------|
F|-3--3--3----3----3--REST--3--3--3--3--3--3--3-|----------------------------|
C|-3--3--3----3----3--------3--3--3--3--3--3--3-|----------------------------|
G|-1--1--1----1----1--------1--1--1--1--1--1--1-|----------------------------|
C|----------------------------------------------|----------------------------|

D|---------------------|
A|---------------------|
F|-5-----5-----5-----5-|
C|-5-----5-----5-----5-|
G|-3-----3-----3-----3-|
C|---------------------|

D|--------------------------------|------------------------------------------|
A|--------------------------------|------------------------------------------|
F|--------------------------------|------------------------------------------|
C|--------------------------------|------------------------------------------|
G|--------------------------------|------------------------------------------|
C|-12--12--12--12--12--12--12--12-|--12--12--12--12--12--12--12--10----------|

D|--------------------------------|------------------------------------------|
A|--------------------------------|------------------------------------------|
F|--------------------------------|------------------------------------------|
C|--------------------------------|------------------------------------------|
G|--------------------------------|------------------------------------------|
C|-12--12--12--12--12--12--12--12-|--12--10--10--10--10--10--10--10----------|

D|------------------------|----------------------|---------------------------|
A|------------------------|----------------------|---------------------------|
F|------------------------|----------------------|---------------------------|
C|------------------------|----------------------|---------------------------|
G|------------------------|----------------------|---------------------------|
C|-8--8--8--8--8--8--8--8-|--8--8--8--8--8--8--7-|---------------------------|

D|------------------------|------------------------------|-------------------|
A|------------------------|------------------------------|-------------------|
F|------------------------|--9-------9-------9-------14\-|-------------------|
C|------------------------|--X-------X-------X-----------|-------------------|
G|------------------------|--7-------7-------7-----------|-------------------|
C|-8--8--8--8--8--8--8--8-|------------------------------|-------------------|

D|------------------------------------------------------|--------------------|
A|------------------------------------------------------|--------------------|
F|------------------------------------------10-10-10-10-|--------------------|
C|-------------------------------------------X--X--X--X-|--------------------|
G|-0--0--0----0----0--0--0----0----0--0--0---8--8--8--8-|--------------------|
C|-0--0--0----0----0--0--0----0----0--0--0--------------|--------------------|
   *  *  *    *    *  *  *    *    *  *  *

D|------------------------------------|--------------------------------------|
A|------------------------------------|--------------------------------------|
F|-------------------------9--9--9--9-|--9--9--9--9--9--9--9--9--------------|
C|-------------------------X--X--X--X-|--X--X--X--X--X--X--X--X--------------|
G|-0-------0--------0------7--7--7--7-|--7--7--7--7--7--7--7--7--------------|
C|-0-------0--------0-----------------|--------------------------------------|
   *       *        *

D|------------------------|--------------------------------------------------|
A|------------------------|--------------------------------------------------|
F|------------------------|--------------------------------------------------|
C|------------------------|--------------------------------------------------|
G|------------------------|--------------------------------------------------|
C|-8--8--8--8--8--8--8--8-|--8--8--8--8--8--8--8--8--------------------------|

D|------------------------|--------------------------------------------------|
A|------------------------|--------------------------------------------------|
F|------------------------|--------------------------------------------------|
C|------------------------|--------------------------------------------------|
G|------------------------|----------7------8h7------7-----------------------|
C|-8--8--8--8--8--8--8--8-|--10--10-----10-------10--------------------------|
                             *   *      *        *

D|-------17--17--17--17--17--17--17-|--17--17--17--17--17--17----------------|
A|----------------------------------|----------------------------------------|
F|-REST-----------------------------|--------------------------REST----------|
C|----------------------------------|----------------------------------------|
G|----------------------------------|----------------------------------------|
C|----------------------------------|----------------------------------------|

D|-------15--15--15--15--15--15--15-|------20--20--20--20--20--20--20--------|
A|----------------------------------|--20--20--20--20-(20)(20)---------------|
F|-REST-----------------------------|----------------------------------------|
C|----------------------------------|----------------------------------------|
G|----------------------------------|----------------------------------------|
C|----------------------------------|----------------------------------------|

D|-----13--13--13--13--13--13--13-|--13--13--13--13--13--13------------------|
A|-25--25--25--25--25-(25)(25)----|------------------------------------------|
F|--------------------------------|--------------------------REST------------|
C|--------------------------------|------------------------------------------|
G|--------------------------------|------------------------------------------|
C|--------------------------------|------------------------------------------|

D|-------12--12--12--12--12--12--12-|------15--15--15--15--15--15--15--------|
A|----------------------------------|--17--17--17--17--17-(17)(17)-----------|
F|-REST-----------------------------|----------------------------------------|
C|----------------------------------|----------------------------------------|
G|----------------------------------|----------------------------------------|
C|----------------------------------|----------------------------------------|

D|-------17--17--17--17--17--17--17|--17--17--17--17--17--17-----------------|
A|---------------------------------|-----------------------------------------|
F|-REST----------------------------|--------------------------REST-----------|
C|---------------------------------|-----------------------------------------|
G|---------------------------------|-----------------------------------------|
C|---------------------------------|-----------------------------------------|

D|-------15--15--15--15--15--15--15-|------20--20--20--20--20--20--20-|-------|
A|----------------------------------|--20--20--20--20-(20)(20)--------|-------|
F|-REST-----------------------------|---------------------------------|-------|
C|----------------------------------|---------------------------------|-------|
G|----------------------------------|---------------------------------|-------|
C|----------------------------------|---------------------------------|-------|

D|-----18--18--18--18--18--18--18-|--18--18--18--18--18--18-------|----------|
A|-25--25--25--25--25-(25)(25)----|-------------------------------|----------|
F|--------------------------------|--------------------------REST-|----------|
C|--------------------------------|-------------------------------|----------|
G|--------------------------------|-------------------------------|----------|
C|--------------------------------|-------------------------------|----------|

D|--------------------------------|---------------------------------|--------|
A|--------------------------------|---------------------------------|--------|
F|--------------------------------|---------------------------------|--------|
C|-10--10--10--10--10--10--10--10-|--10--10--10--10--10--10--10--10-|--------|
G|-10--10--10--10--10--10--10--10-|--10--10--10--10--10--10--10--10-|--------|
C|-10--10--10--10--10--10--10--10-|--10--10--10--10--10--10--10--10-|--------|

D|-17-17-17-17-17-17-17-17-17-17-17-17-17-17-17-17-x2|-----------------------|
A|---------------------------------------------------|-----------------------|
F|---------------------------------------------------|-----------------------|
C|---------------------------------------------------|-----------------------|
G|---------------------------------------------------|-----------------------|
C|---------------------------------------------------|-----------------------|

D|-15-15-15-15-15-15-15-15-15-15-15-15-15-15-15-15-|-------------------------|
A|-------------------------------------------------|-------------------------|
F|-------------------------------------------------|-------------------------|
C|-------------------------------------------------|-------------------------|
G|-------------------------------------------------|-------------------------|
C|-------------------------------------------------|-------------------------|

D|-13-13-13-13-13-13-13-13-13-13-13-13-13-13-13-13-|-------------------------|
A|-------------------------------------------------|-------------------------|
F|-------------------------------------------------|-------------------------|
C|-------------------------------------------------|-------------------------|
G|-------------------------------------------------|-------------------------|
C|-------------------------------------------------|-------------------------|

D|-17-17-17-17-17-17-17-17-17-17-17-17-17-17-17-17-x2|-----------------------|
A|---------------------------------------------------|-----------------------|
F|---------------------------------------------------|-----------------------|
C|---------------------------------------------------|-----------------------|
G|---------------------------------------------------|-----------------------|
C|---------------------------------------------------|-----------------------|

D|-22-22-22-22-22-22-22-22-15-15-15-15-15-15-15-15-|-------------------------|
A|-------------------------------------------------|-------------------------|
F|-------------------------------------------------|-------------------------|
C|-------------------------------------------------|-------------------------|
G|-------------------------------------------------|-------------------------|
C|-------------------------------------------------|-------------------------|

D|-18-18-18-18-18-18-18-18-18-18-18-18-18-18-18-18-|-------------------------|
A|-------------------------------------------------|-------------------------|
F|-------------------------------------------------|-------------------------|
C|-------------------------------------------------|-------------------------|
G|-------------------------------------------------|-------------------------|
C|-------------------------------------------------|-------------------------|

D|-17-17-17-17-17-17-17-17-17-17-17-17-17-17-17-17-x2|-----------------------|
A|---------------------------------------------------|-----------------------|
F|---------------------------------------------------|-----------------------|
C|---------------------------------------------------|-----------------------|
G|---------------------------------------------------|-----------------------|
C|---------------------------------------------------|-----------------------|

D|-15-15-15-15-15-15-15-15-15-15-15-15-15-15-15-15-|-------------------------|
A|-------------------------------------------------|-------------------------|
F|-------------------------------------------------|-------------------------|
C|-------------------------------------------------|-------------------------|
G|-------------------------------------------------|-------------------------|
C|-------------------------------------------------|-------------------------|

D|-13-13-13-13-13-13-13-13-13-13-13-13-13-13-13-13-|-------------------------|
A|-------------------------------------------------|-------------------------|
F|-------------------------------------------------|-------------------------|
C|-------------------------------------------------|-------------------------|
G|-------------------------------------------------|-------------------------|
C|-------------------------------------------------|-------------------------|

D|-17-17-17-17-17-17-17-17-17-17-17-17-17-17-17-17-x2|-----------------------|
A|---------------------------------------------------|-----------------------|
F|---------------------------------------------------|-----------------------|
C|---------------------------------------------------|-----------------------|
G|---------------------------------------------------|-----------------------|
C|---------------------------------------------------|-----------------------|

D|-20-20-20-20-20-20-20-20-20-20-20-20-20-20-20-20-|-------------------------|
A|-------------------------------------------------|-------------------------|
F|-------------------------------------------------|-------------------------|
C|-------------------------------------------------|-------------------------|
G|-------------------------------------------------|-------------------------|
C|-------------------------------------------------|-------------------------|

D|------------------------|
A|------------------------|
F|------------------------|
C|-5--5--5--5--5--5--5--5-|
G|-5--5--5--5--5--5--5--5-|
C|-5--5--5--5--5--5--5--5-|

D|------------------------|-------------------------|------------------------|
A|------------------------|-------------------------|------------------------|
F|------------------------|-------------------------|------------------------|
C|-5--5--5--5--5--5--5--5-|--8--8--8--8--8--8--8--8-|------------------------|
G|-5--5--5--5--5--5--5--5-|--8--8--8--8--8--8--8--8-|------------------------|
C|-5--5--5--5--5--5--5--5-|--8--8--8--8--8--8--8--8-|------------------------|

D|--------------------------|----------------------|-------------------------|
A|--------------------------|----------------------|-------------------------|
F|--------------------------|----------------------|-------------------------|
C|-8--8--8--8---------------|--3--3--3--3--3--3--3-|-------------------------|
G|-8--8--8--8--3--5--8--5HN-|--5--5--5--5--5--5--5-|-------------------------|
C|-8--8--8--8---------------|----------------------|-------------------------|

D|--------------------------|----------------------|-------------------------|
A|--------------------------|----------------------|-------------------------|
F|--------------------------|----------------------|-------------------------|
C|-3--3--3--3---------------|--2--2--2--2--2--2--2-|-------------------------|
G|-5--5--5--5--3--5--8--7HN-|--3--3--3--3--3--3--3-|-------------------------|
C|--------------------------|----------------------|-------------------------|

D|------------------------|---------------------------|----------------------|
A|------------------------|---------------------------|----------------------|
F|------------------------|---------------------------|----------------------|
C|-2--2--2--2--2--2--2--2-|--5------5-------5-------5-|----------------------|
G|-3--3--3--3--3--3--3--3-|--5------5-------5-------5-|----------------------|
C|------------------------|--5------5-------5-------5-|----------------------|

D|------------------------|-------------------------|------------------------|
A|------------------------|-------------------------|------------------------|
F|------------------------|-------------------------|------------------------|
C|-5------5------5------5-|--8--8--8--8--8--8--8--8-|------------------------|
G|-5------5------5------5-|--8--8--8--8--8--8--8--8-|------------------------|
C|-5------5------5------5-|--8--8--8--8--8--8--8--8-|------------------------|

D|---------|-----------------------------------------------------------------|
A|---------|-----------------------------------------------------------------|
F|----REST-|--14--14--14--14--14--14--14--14---------------------------------|
C|-8-------|--X---X---X---X---X---X---X---X----------------------------------|
G|-8-------|--12--12--12--12--12--12--12--12---------------------------------|
C|-8-------|-----------------------------------------------------------------|

D|-------------------------------|---------------------------------|---------|
A|-------------------------------|---------------------------------|---------|
F|--14--14--14--14--14-----------|--14--14--14--14--14--14--14--14-|---------|
C|--X---X---X---X---X------------|--X---X---X---X---X---X---X---X--|---------|
G|--12--12--12--12--12--X--X--X--|--12--12--12--12--12--12--12--12-|---------|
C|----------------------X--X--X--|---------------------------------|---------|

D|--------------------------------|-------------------------|----------------|
A|--------------------------------|-------------------------|----------------|
F|-12--12--12--12--12--12--12--12-|-------------------------|----------------|
C|-X---X---X---X---X---X---X-X----|--8--8--8--8--8--8--8--8-|----------------|
G|-10--10--10--10--10--10--10--10-|--8--8--8--8--8--8--8--8-|----------------|
C|--------------------------------|--8--8--8--8--8--8--8--8-|----------------|

D|--------------------------------------------------|------------------------|
A|--------------------------------------------------|------------------------|
F|--------------------------------------------------|------------------------|
C|-8--8--8--8--8--8--8--8-|--8--8--8--8--8--8--8----|------------------------|
G|-8--8--8--8--8--8--8--8-|--8--8--8--8--8--8--8--8-|------------------------|
C|-8--8--8--8--8--8--8--8-|--8--8--8--8--8--8--8--8-|------------------------|


D|---------------------------|---------------------------------|-------------|
A|---------------------------|---------------------------------|-------------|
F|---------------------------|--14--14--14--14--14--14--14--14-|-------------|
C|---------------------------|--X---X---X---X---X---X---X---X--|-------------|
G|-10---------7------8h7-----|--12--12--12--12--12--12--12--12-|-------------|
C|-10-----10-----10-------10-|---------------------------------|-------------|
          *      *        *

D|-------------------------------|---------------------------------|---------|
A|-------------------------------|---------------------------------|---------|
F|--14--14--14--14--14-----------|--14--14--14--14--14--14--14--14-|---------|
C|--X---X---X---X---X------------|--X---X---X---X---X---X---X---X--|---------|
G|--12--12--12--12--12--X--X--X--|--12--12--12--12--12--12--12--12-|---------|
C|----------------------X--X--X--|---------------------------------|---------|

D|--------------------------------|-------------------------|----------------|
A|--------------------------------|-------------------------|----------------|
F|-12--12--12--12--12--12--12--12-|-------------------------|----------------|
C|-X---X---X---X---X---X---X-X----|--8--8--8--8--8--8--8--8-|----------------|
G|-10--10--10--10--10--10--10--10-|--8--8--8--8--8--8--8--8-|----------------|
C|--------------------------------|--8--8--8--8--8--8--8--8-|----------------|

D|--------------------------------------------------|------------------------|
A|--------------------------------------------------|------------------------|
F|--------------------------------------------------|------------------------|
C|-8--8--8--8--8--8--8--8-|--8--8--8--8--8--8--8--8-|------------------------|
G|-8--8--8--8--8--8--8--8-|--8--8--8--8--8--8--8--8-|------------------------|
C|-8--8--8--8--8--8--8--8-|--8--8--8--8--8--8--8--8-|------------------------|

D|---------------------------|----------------------------------|------------|
A|---------------------------|----------------------------------|------------|
F|---------------------------|----------------------------------|------------|
C|---------------------------|--8------8--8------8HN------------|------------|
G|------------7------8h7-----|--8------8--8------8HN------------|------------|
C|-10-----10-----10-------10-|--8------8--8------8NH------------|------------|
   *      *      *        *

D|----------------|---------------|-----------------|------|-----------------|
A|----------------|---------------|-----------------|------|-----------------|
F|--------5-------|--------5------|-------7---------|------|-----------------|
C|--------------7-|-------------7-|-------------8HN-|--5HN-|-----------------|
G|----------------|---------------|-----------------|--5HN-|-----------------|
C|-5--------------|--7------------|--8--------------|--5HN-|-----------------|

D|------------------------------------------|--------------------------------|
A|------------------------------------------|--------------------------------|
F|------------------------------------------|--------------------------------|
C|------------------------------------------|--------------------------------|
G|--0--0--0----0----0--0--0----0----0--0--0-|--------------------------------|
C|--0--0--0----0----0--0--0----0----0--0--0-|--------------------------------|
    *  *  *    *    *  *  *    *    *  *  *

D|--------------------------|--------------------------|----------------------|
A|--------------------------|--------------------------|----------------------|
F|--10-10-10-10-10-10-10-10-|--10-10-10-10-10-10-10-10-|----------------------|
C|--X--X--X--X--X--X--X--X--|--X--X--X--X--X--X--X--X--|----------------------|
G|--8--8--8--8--8--8--8--8--|--8--8--8--8--8--8--8--8--|----------------------|
C|-----------------------------------------------------|----------------------|

D|-------------------------|--------------------------------------|----------|
A|-------------------------|--------------------------------------|----------|
F|--------------------REST-|---------------------REST-----REST----|----------|
C|-------------------------|--------------------------------------|----------|
G|-0--0--0---0--0--0-------|--0--0--0---0--0--0--------0--------0-|----------|
C|-0--0--0---0--0--0-------|--0--0--0---0--0--0--------0--------0-|----------|
   *  *  *   *  *  *          *  *  *   *  *  *        *        *

D|-------------------------------------|-------------------------------------|
A|-------------------------------------|-------------------------------------|
F|-REST-----REST-----------------------|---------------------R---------------|
C|-------------------------------------|-------------------------------------|
G|-------0-------0---0--0--0---0--0--0-|--0--0--0---0--0--0-----0---0---0----|
C|-------0-------0---0--0--0---0--0--0-|--0--0--0---0--0--0-----0---0---0----|
         *       *   *  *  *   *  *  *    *  *  *   *  *  *     *   *   *

D|-------------------------------------------------|------------------------|
A|-------------------------------------------------|------------------------|
F|-------------------------------------------------|------------------REST--|
C|-------------------------------------------------|------------------------|
G|-------------------------------------------------|--0---0--------0--------|
C|-12-12-12-12-12-12-12-12-10-10-10-10-10-10-10-10-|--0---0--------0--------|
                                                      *

D|---------------------|-----------------------------------------------------|
A|---------------------|-----------------------------------------------------|
F|-----REST------------|--------------------REST-----------------------------|
C|---------------------|-----------------------------------------------------|
G|---------------------|-0--0--0---0--0--0--------0---0---0------------------|
C|--0--------0---0---0-|-0--0--0---0--0--0--------0---0---0------------------|
                         *  *  *   *  *  *        *   *   *

D|-------------------------|--------------------------------------|----------|
A|-------------------------|--------------------------------------|----------|
F|-----------------REST----|---------------------REST-----REST----|----------|
C|-14--------14------------|--------------------------------------|----------|
G|-10--------10------------|--0--0--0---0--0--0--------0--------0-|----------|
C|-10--------10------------|--0--0--0---0--0--0--------0--------0-|----------|
                              *  *  *   *  *  *        *        *


D|-------------------------------------|-------------------------------------|
A|-------------------------------------|-------------------------------------|
F|-REST-----REST-----------------------|---------------------R---------------|
C|-------------------------------------|-------------------------------------|
G|-------0-------0---0--0--0---0--0--0-|--0--0--0---0--0--0-----0---0---0----|
C|-------0-------0---0--0--0---0--0--0-|--0--0--0---0--0--0-----0---0---0----|
         *       *   *  *  *   *  *  *    *  *  *   *  *  *     *   *   *

D|-------------------------------------------------|------------------------|
A|-------------------------------------------------|------------------------|
F|-------------------------------------------------|------------------REST--|
C|-------------------------------------------------|------------------------|
G|-------------------------------------------------|--0---0----0---0--------|
C|-12-12-12-12-12-12-12-12-10-10-10-10-10-10-10-10-|--0---0----0---0--------|
                                                      *

D|---------------------|-----------------------------------------------------|
A|---------------------|-----------------------------------------------------|
F|-----REST------------|--------------------REST-----------------------------|
C|---------------------|-----------------------------------------------------|
G|---------------------|-0--0--0---0--0--0--------0---0---0------------------|
C|--0--------0---0---0-|-0--0--0---0--0--0--------0---0---0------------------|
                         *  *  *   *  *  *        *   *   *

D|---------------------|-----------------------------------------------------|
A|---------------------|-----------------------------------------------------|
F|-14------14------15\-|-----------------------------------------------------|
C|-X-------X-------X---|-----------------------------------------------------|
G|-12------12------13\-|---------0--0--0---0--0--0---0--0--0---0--0--0-------|
C|---------------------|--8HN----0--0--0---0--0--0---0--0--0---0--0--0-------|
                                 *  *  *   *  *  *   *  *  *   *  *  *

D|--------------------------------|-----------------------------|------------|
A|--------------------------------|-----------------------------|------------|
F|--------------------------------|-----------------------------|------------|
C|--------------------------------|-----------------------------|------------|
G|--------------------------------|--0----0----0----0----0----0-|------------|
C|--0---0---0---0---0---0---0---0-|--0----0----0----0----0----0-|------------|
    *   *   *       *       *        *    *    *    *    *    *

D|--------------------------------|-----------------------------------------|
A|--------------------------------|-----------------------------------------|
F|--------------------------------|-----------------------------------------|
C|--------------------------------|-----------------------------------------|
G|--------------------------------|--0--0--0---0--0--0---0--0--0---0--0--0--|
C|--0---0---0---0---0---0---0---0-|--0--0--0---0--0--0---0--0--0---0--0--0--|
    *   *   *       *       *        *  *  *   *  *  *   *  *  *   *  *  *

D|--------------------------------|--------------------------------|---------|
A|--------------------------------|--------------------------------|---------|
F|--------------------------------|--------------------------------|---------|
C|--------------------------------|--------------------------------|---------|
G|--------------------------------|--8---8---8---8---8---8---8---8-|---------|
C|--0---0---0---0---0---0---0---0-|--8---8---8---8---8---8---8---8-|---------|
    *   *   *       *       *

D|--------------------------------|---------------------------------|--------|
A|--------------------------------|---------------------------------|--------|
F|--------------------------------|---------------------------------|--------|
C|--------------------------------|---------------------------------|--------|
G|-10--10--10--10--10--10--10--10-|---------------------------------|--------|
C|-10--10--10--10--10--10--10--10-|--12--12--12--12--12--12--12--12-|--------|

D|--------------------------------|---------------------------------|--------|
A|--------------------------------|---------------------------------|--------|
F|--------------------------------|---------------------------------|--------|
C|--------------------------------|---------------------------------|--------|
G|--------------------------------|---------------------------------|--------|
C|-12--12--12--12--12--12--12--10-|--12--12--12--12--12--12--12--10-|--------|

D|--------------------------------|----------------------------------|-------|
A|--------------------------------|----------------------------------|-------|
F|--------------------------------|----------------------------------|-------|
C|--------------------------------|----------------------------------|-------|
G|--------------------------------|----------------------------------|-------|
C|-12--10--10--10--10--10--10--10-|--12--12--12--12--12--12--12--12--|-------|

D|--------------------------------|---------------------------------|--------|
A|--------------------------------|---------------------------------|--------|
F|--------------------------------|---------------------------------|--------|
C|--------------------------------|---------------------------------|--------|
G|--------------------------------|---------------------------------|--------|
C|-12--12--12--12--12--12--12--10-|--12--12--12--12--12--12--12--12-|--------|

D|--------------------------------|---------------------------------|--------|
A|--------------------------------|---------------------------------|--------|
F|--------------------------------|---------------------------------|--------|
C|--------------------------------|---------------------------------|--------|
G|--------------------------------|---------------------------------|--------|
C|-12--12--12--12--12--12--12--10-|--12--12--12--12--12--12--12--10-|--------|

D|--------------------------------|----------------------------------|------|
A|--------------------------------|----------------------------------|------|
F|--------------------------------|----------------------------------|------|
C|--------------------------------|----------------------------------|------|
G|--------------------------------|----------------------------------|------|
C|-12--10--10--10--10--10--10--10-|--12--12--12--12--12--12--12--12--|------|

D|--------------------------------|---------------------------------|--------|
A|--------------------------------|---------------------------------|--------|
F|--------------------------------|---------------------------------|--------|
C|--------------------------------|---------------------------------|--------|
G|--------------------------------|---------------------------------|--------|
C|-12--12--12--12--12--12--12--10-|--12--12--12--12--12--12--12--12-|--------|

D|--------------------------------|
A|--------------------------------|
F|--------------------------------|
C|--------------------------------|
G|--------------------------------|
C|-10--10--10--10--10--10--10--10-|

D|-17-17-17-17-17-17-17-17-17-17-17-17-17-17-17-17-x2|-----------------------|
A|---------------------------------------------------|-----------------------|
F|---------------------------------------------------|-----------------------|
C|---------------------------------------------------|-----------------------|
G|---------------------------------------------------|-----------------------|
C|---------------------------------------------------|-----------------------|

D|-10-10-10-10-10-10-10-10-10-10-10-10-10-10-10-10-|-------------------------|
A|-------------------------------------------------|-------------------------|
F|-------------------------------------------------|-------------------------|
C|-------------------------------------------------|-------------------------|
G|-------------------------------------------------|-------------------------|
C|-------------------------------------------------|-------------------------|

D|-13-13-13-13-13-13-13-13-13-13-13-13-13-13-13-13-|-------------------------|
A|-------------------------------------------------|-------------------------|
F|-------------------------------------------------|-------------------------|
C|-------------------------------------------------|-------------------------|
G|-------------------------------------------------|-------------------------|
C|-------------------------------------------------|-------------------------|

D|-------------------------------------------------|-------------------------|
A|-10-10-10-10-10-10-10-10-10-10-10-10-10-10-10-10-|-------------------------|
F|-------------------------------------------------|-------------------------|
C|-------------------------------------------------|-------------------------|
G|-------------------------------------------------|-------------------------|
C|-------------------------------------------------|-------------------------|

D|-------------------------------------------------|-------------------------|
A|-10-10-10-10-10-10-10-10-11-11-11-11-11-11-11-11-|-------------------------|
F|-------------------------------------------------|-------------------------|
C|-------------------------------------------------|-------------------------|
G|-------------------------------------------------|-------------------------|
C|-------------------------------------------------|-------------------------|

D|----------------------------------------------------|----------------------|
A|-13-13-13-13-13-13-13-13-13-13-13-13-13-13-13-13-x2-|----------------------|
F|----------------------------------------------------|----------------------|
C|----------------------------------------------------|----------------------|
G|----------------------------------------------------|----------------------|
C|----------------------------------------------------|----------------------|

D|-17-17-17-17-17-17-17-17-17-17-17-17-17-17-17-17-x2|-----------------------|
A|---------------------------------------------------|-----------------------|
F|---------------------------------------------------|-----------------------|
C|---------------------------------------------------|-----------------------|
G|---------------------------------------------------|-----------------------|
C|---------------------------------------------------|-----------------------|

D|-10HN-------------------|-------------------------|------------------------|
A|------------------------|-------------------------|------------------------|
F|------------------------|-------------------------|------------------------|
C|--------------------3HN-|--3--3--3--3--3--3--3--3-|------------------------|
G|-----------3--5--8--5HN-|--5--5--5--5--5--5--5--5-|------------------------|
C|------------------------|-------------------------|------------------------|


D|--------------------------|-------------------------|----------------------|
A|--------------------------|-------------------------|----------------------|
F|--------------------------|-------------------------|----------------------|
C|-3--3--3--3--------3--2HN-|--2--2--2--2--2--2--2--2-|----------------------|
G|-5--5--5--5--3--5-----3HN-|--3--3--3--3--3--3--3--3-|----------------------|
C|--------------------------|-------------------------|----------------------|


D|----------|---------------------------------|------------------------------|
A|----------|---------------------------------|------------------------------|
F|----REST--|--14--14--14--14--14--14--14--14-|------------------------------|
C|-2--------|--X---X---X---X---X---X---X---X--|------------------------------|
G|-3--------|--12--12--12--12--12--12--12--12-|------------------------------|
C|----------|---------------------------------|------------------------------|

D|-------------------------------|---------------------------------|---------|
A|-------------------------------|---------------------------------|---------|
F|--14--14--14--14--14-----------|--14--14--14--14--14--14--14--14-|---------|
C|--X---X---X---X---X------------|--X---X---X---X---X---X---X---X--|---------|
G|--12--12--12--12--12--X--X--X--|--12--12--12--12--12--12--12--12-|---------|
C|----------------------X--X--X--|---------------------------------|---------|

D|--------------------------------|-------------------------|----------------|
A|--------------------------------|-------------------------|----------------|
F|-12--12--12--12--12--12--12--12-|-------------------------|----------------|
C|-X---X---X---X---X---X---X---X--|--8--8--8--8--8--8--8--8-|----------------|
G|-10--10--10--10--10--10--10--10-|--8--8--8--8--8--8--8--8-|----------------|
C|--------------------------------|--8--8--8--8--8--8--8--8-|----------------|

D|--------------------------------------------------|------------------------|
A|--------------------------------------------------|------------------------|
F|--------------------------------------------------|------------------------|
C|-8--8--8--8--8--8--8--8-|--8--8--8--8--8--8--8----|------------------------|
G|-8--8--8--8--8--8--8--8-|--8--8--8--8--8--8--8--8-|------------------------|
C|-8--8--8--8--8--8--8--8-|--8--8--8--8--8--8--8--8-|------------------------|

D|---------------------------|---------------------------------|-------------|
A|---------------------------|---------------------------------|-------------|
F|---------------------------|--14--14--14--14--14--14--14--14-|-------------|
C|---------------------------|--X---X---X---X---X---X---X---X--|-------------|
G|-10---------7------8h7-----|--12--12--12--12--12--12--12--12-|-------------|
C|-10-----10-----10-------10-|---------------------------------|-------------|
          *      *        *

D|-------------------------------|---------------------------------|---------|
A|-------------------------------|---------------------------------|---------|
F|--14--14--14--14--14-----------|--14--14--14--14--14--14--14--14-|---------|
C|--X---X---X---X---X------------|--X---X---X---X---X---X---X---X--|---------|
G|--12--12--12--12--12--X--X--X--|--12--12--12--12--12--12--12--12-|---------|
C|----------------------X--X--X--|---------------------------------|---------|

D|--------------------------------|-------------------------|----------------|
A|--------------------------------|-------------------------|----------------|
F|-12--12--12--12--12--12--12--12-|-------------------------|----------------|
C|-X---X---X---X---X---X---X---X--|--8--8--8--8--8--8--8--8-|----------------|
G|-10--10--10--10--10--10--10--10-|--8--8--8--8--8--8--8--8-|----------------|
C|--------------------------------|--8--8--8--8--8--8--8--8-|----------------|

D|------------------------|-----------------------|--------------------------|
A|------------------------|-----------------------|--------------------------|
F|------------------------|------------5----------|--------------------------|
C|-8--8--8--8--8--8--8--8-|---------------------7-|--------------------------|
G|-8--8--8--8--8--8--8--8-|-----------------------|--------------------------|
C|-8--8--8--8--8--8--8--8-|--5--------------------|--------------------------|


D|--------------------|-------------------------|----------------------------|
A|--------------------|-------------------------|----------------------------|
F|----------5---------|-------------------------|----------------------------|
C|------------------7-|--8--8--8--8--8--8--8--8-|----------------------------|
G|--------------------|--8--8--8--8--8--8--8--8-|----------------------------|
C|-7------------------|--8--8--8--8--8--8--8--8-|----------------------------|

D|------------------------|-----------------------|--------------------------|
A|------------------------|-----------------------|--------------------------|
F|------------------------|------------5----------|--------------------------|
C|-8--8--8--8--8--8--8--8-|---------------------7-|--------------------------|
G|-8--8--8--8--8--8--8--8-|-----------------------|--------------------------|
C|-8--8--8--8--8--8--8--8-|--5--------------------|--------------------------|

D|----------------------------|-----------------------------|----------------|
A|----------------------------|--6--------5--6--------5--6--|----------------|
F|----------------------REST--|-----------------------------|----------------|
C|----------------------------|-----------------------------|----------------|
G|-7--7--7--7--7--7--7--------|-----------------------------|----------------|
C|-7--7--7--7--7--7--7--------|-----------------------------|----------------|

D|-------------------------|------------------------------|------------------|
A|--6------------6-------5-|--(5)-----(5)-----(5)-----(5)-|------------------|
F|-------------------------|------------------------------|------------------|
C|-------------------------|------------------------------|------------------|
G|-------------------------|------------------------------|------------------|
C|-------------------------|------------------------------|------------------|

D|--------------------|----------------------------|-------------------------|
A|-(5)-----(5)--------|--6--------5--6--------5--6-|-------------------------|
F|--------------REST--|----------------------------|-------------------------|
C|--------------------|----------------------------|-------------------------|
G|--------------------|----------------------------|-------------------------|
C|--------------------|----------------------------|-------------------------|

D|-------------------------|------------------------------|------------------|
A|--6------------6-------5-|--(5)-----(5)-----(5)-----(5)-|------------------|
F|-------------------------|------------------------------|--REST------------|
C|-------------------------|------------------------------|------------------|
G|-------------------------|------------------------------|------------------|
C|-------------------------|------------------------------|------------------|

D|----------------------------------------|----------------------------------|
A|----------------------------------------|----------------------------------|
F|--3--3--3--3--REST--3--3--3--3--3--3--3-|----------------------------------|
C|--3--3--3--3--------3--3--3--3--3--3--3-|----------------------------------|
G|--1--1--1--1--------1--1--1--1--1--1--1-|----------------------------------|
C|----------------------------------------|----------------------------------|

D|----------------------------------------|--------------------|-------------|
A|----------------------------------------|--------------------|-------------|
F|--3--3--3--3--REST--3--3--3--3--3--3--3-|--5-------5-------5-|-------------|
C|--3--3--3--3--------3--3--3--3--3--3--3-|--5-------5-------5-|-------------|
G|--1--1--1--1--------1--1--1--1--1--1--1-|--3-------3-------3-|-------------|
C|----------------------------------------|--------------------|-------------|

D|---------------------------------------|-----------------------------------|
A|---------------------------------------|-----------------------------------|
F|-7--7--7--7--REST--7--7--7--7--7--7--7-|-----------------------------------|
C|-7--7--7--7--------7--7--7--7--7--7--7-|-----------------------------------|
G|-5--5--5--5--------5--5--5--5--5--5--5-|-----------------------------------|
C|---------------------------------------|-----------------------------------|

D|---------------------------------------|-------------------------|---------|
A|---------------------------------------|-------------------------|---------|
F|-7--7--7--7--REST--7--7--7--7--7--7--7-|--7------7------7------7-|---------|
C|-7--7--7--7--------7--7--7--7--7--7--7-|--7------7------7------7-|---------|
G|-5--5--5--5--------5--5--5--5--5--5--5-|--5------5------5------5-|---------|
C|---------------------------------------|-------------------------|---------|

D|------------------------------------------|--------------------------------|
A|------------------------------------------|--5-----------------------------|
F|--3--3--3--3--REST--3--3--3--3--3--3--3---|--5-----------------------------|
C|--3--3--3--3--------3--3--3--3--3--3--3-x2|--5-----------------------------|
G|--1--1--1--1--------1--1--1--1--1--1--1---|--3-----------------------------|
C|------------------------------------------|--------------------------------|

D|---------------------------------------|-----------------------------------|
A|---------------------------------------|-----------------------------------|
F|-7--7--7--7--REST--7--7--7--7--7--7--7-|-----------------------------------|
C|-7--7--7--7--------7--7--7--7--7--7--7-|-----------------------------------|
G|-5--5--5--5--------5--5--5--5--5--5--5-|-----------------------------------|
C|---------------------------------------|-----------------------------------|

D|---------------------------------------|-------------------------|---------|
A|---------------------------------------|-------------------------|---------|
F|-7--7--7--7--REST--7--7--7--7--7--7--7-|--7------7------7------7-|---------|
C|-7--7--7--7--------7--7--7--7--7--7--7-|--7------7------7------7-|---------|
G|-5--5--5--5--------5--5--5--5--5--5--5-|--5------5------5------5-|---------|
C|---------------------------------------|-------------------------|---------|

D|----------------------------------------|----------------------------------|
A|----------------------------------------|----------------------------------|
F|--3--3--3--3--REST--3--3--3--3--3--3--3-|----------------------------------|
C|--3--3--3--3--------3--3--3--3--3--3--3-|----------------------------------|
G|--1--1--1--1--------1--1--1--1--1--1--1-|----------------------------------|
C|----------------------------------------|----------------------------------|

D|----------------------------------------|--------------------|-------------|
A|----------------------------------------|--------------------|-------------|
F|--3--3--3--3--REST--3--3--3--3--3--3--3-|--5-------5-------5-|-------------|
C|--3--3--3--3--------3--3--3--3--3--3--3-|--5-------5-------5-|-------------|
G|--1--1--1--1--------1--1--1--1--1--1--1-|--3-------3-------3-|-------------|
C|----------------------------------------|--------------------|-------------|

D|---------------------------------------|-----------------------------------|
A|---------------------------------------|-----------------------------------|
F|-7--7--7--7--REST--7--7--7--7--7--7--7-|-----------------------------------|
C|-7--7--7--7--------7--7--7--7--7--7--7-|-----------------------------------|
G|-5--5--5--5--------5--5--5--5--5--5--5-|-----------------------------------|
C|---------------------------------------|-----------------------------------|

D|---------------------------------------|-------------------------|---------|
A|---------------------------------------|-------------------------|---------|
F|-7--7--7--7--REST--7--7--7--7--7--7--7-|--7------7------7------7-|---------|
C|-7--7--7--7--------7--7--7--7--7--7--7-|--7------7------7------7-|---------|
G|-5--5--5--5--------5--5--5--5--5--5--5-|--5------5------5------5-|---------|
C|---------------------------------------|-------------------------|---------|

D|----------------------------------------|----------------------------------|
A|----------------------------------------|----------------------------------|
F|--3--3--3--3--REST--3--3--3--3--3--3--3-|----------------------------------|
C|--3--3--3--3--------3--3--3--3--3--3--3-|----------------------------------|
G|--1--1--1--1--------1--1--1--1--1--1--1-|----------------------------------|
C|----------------------------------------|----------------------------------|

D|----------------------------------------|----------------------|-----------|
A|----------------------------------------|----------------------|-----------|
F|--3--3--3--3--REST--3--3--3--3--3--3--3-|--5-------5-------5HN-|-----------|
C|--3--3--3--3--------3--3--3--3--3--3--3-|--5-------5-------5HN-|-----------|
G|--1--1--1--1--------1--1--1--1--1--1--1-|--3-------3-------3HN-|-----------|
C|----------------------------------------|----------------------|-----------|


************************************
| TREMLO: 1 dash in between
| Held notes: 2 or more
| \   slide down
| h   hammer-on
| *   Mute note
| HN  Hold Note
| ()  Ghost Note
************************************
Tap to rate this tab
# A B C D E F G H I J K L M N O P Q R S T U V W X Y Z