Song name
# A B C D E F G H I J K L M N O P Q R S T U V W X Y Z

Bring Me The Horizon - Seen It All Before tab

This is my first tab.

March 31st, 2013

Well, I made this tab since no one had posted anything. I learned this strictly by ear
so don't complain if someone makes a similar tab. I hope you guys enjoy it. And, Im not
going to write down the exact timing, just the plain octaves. Im sure you can figure out 
the strumming pattern on your own they are not that difficult.

I think there is one guitar (Lee Malia) but there is also a synthesizer which makes up
the song quite a bit. However, I am NOT so sure about the intro nor the bridge but Im
pretty sure someone is going to make a better tab sometime soon but for the mean time.

Here it is....

Intro: Not so sure about it but it works. "Every second soaked in sadness-"
|----------------------------------------------------------------------|
|----------------------------------------------------------------------|
|--(12)----------------(7)-------(12)----------------(7)---------------|
|----------------------------------------------------------------------|
|----------------------------------------------------------------------|
|----------------------------------------------------------------------|

Intro/Chorus #2" Ive heard these lines a thousand times-" BAM!!!
|-------------------------------------------------------------------------------------|
|-------------------------------------------------------------------------------------|
|---------10-10-10-----------10-10-10-4-4-4-3-3-3-------------------------------------|
|-1-1-1---x--x--x-----5-5-5--x--x--x--x-x-x-x-x-x-------------------------------------|
|-1-1-1---8--8--8-----5-5-5--8--8--8--6-6-6-5-5-5-------------------------------------|
|-1-1-1---------------5-5-5-----------------------------------------------------------|


|----------------------------------------------------------------------------|
|----------------------------------------------------------------------------|
|--------10-10-10---------14-14-14---------- 15-15-15------------------------|
|-1-1-1--x--x--x-- 3-3-3---x--x--x---3-3-3--- x--x--x------------------------|
|-1-1-1--8--8--8-- 3-3-3--12-12-12-- 3-3-3---13-13-13------------------------|
|-1-1-1------------3-3-3-------------3-3-3-----------------------------------|

Twiddle around with these notes.

|----------------------------------------------------------------|
|----------------------------------------------------------------|
|--12----15h---10---12h---8---10h---7----------------------------|
|----------------------------------------------------------------|
|----------------------------------------------------------------|
|----------------------------------------------------------------|




Intro/Chorus #2" Ive seen it all before-" BAM!!!        x2
|-------------------------------------------------------------------------------------|
|-------------------------------------------------------------------------------------|
|---------10-10-10-----------10-10-10-4-4-4-3-3-3-------------------------------------|
|-1-1-1---x--x--x-----5-5-5--x--x--x--x-x-x-x-x-x-------------------------------------|
|-1-1-1---8--8--8-----5-5-5--8--8--8--6-6-6-5-5-5-------------------------------------|
|-1-1-1---------------5-5-5-----------------------------------------------------------|


|----------------------------------------------------------------------------|
|----------------------------------------------------------------------------|
|--------10-10-10---------14-14-14---------- 15-15-15------------------------|
|-1-1-1--x--x--x-- 3-3-3---x--x--x---3-3-3--- x--x--x------------------------|
|-1-1-1--8--8--8-- 3-3-3--12-12-12-- 3-3-3---13-13-13------------------------|
|-1-1-1------------3-3-3-------------3-3-3-----------------------------------|


Interlude:

|--------------------------------------------------------------------------|
|--------------------------------------------------------------------------|
|--------------------------------------------------------------------------|
|--5-5-5--5-5-5--5-5-5-----------------------------------------------------|
|--5-5-5--5-5-5--5-5-5-----------------------------------------------------|
|--5-5-5--5-5-5--5-5-5-----------------------------------------------------|

Intro, again. Not so sure about it but it works.
|----------------------------------------------------------------------|
|----------------------------------------------------------------------|
|--(12)----------------(7)-------(12)----------------(7)---------------|
|----------------------------------------------------------------------|
|----------------------------------------------------------------------|
|----------------------------------------------------------------------|


Intro/Chorus #2" Ive heard these lines a thousand times-" BAM!!!
|-------------------------------------------------------------------------------------|
|-------------------------------------------------------------------------------------|
|---------10-10-10-----------10-10-10-4-4-4-3-3-3-------------------------------------|
|-1-1-1---x--x--x-----5-5-5--x--x--x--x-x-x-x-x-x-------------------------------------|
|-1-1-1---8--8--8-----5-5-5--8--8--8--6-6-6-5-5-5-------------------------------------|
|-1-1-1---------------5-5-5-----------------------------------------------------------|


|----------------------------------------------------------------------------|
|----------------------------------------------------------------------------|
|--------10-10-10---------14-14-14---------- 15-15-15------------------------|
|-1-1-1--x--x--x-- 3-3-3---x--x--x---3-3-3--- x--x--x------------------------|
|-1-1-1--8--8--8-- 3-3-3--12-12-12-- 3-3-3---13-13-13------------------------|
|-1-1-1------------3-3-3-------------3-3-3-----------------------------------|


Silence eerie second interlude....


Outro:

|--------------------------------------------------------------------------------|
|--------------------------------------------------------------------------------|
|--------------------------------------------------------------------------------|
|--5-5-5--5-5-5--3-3-3--1-1-1-1--------------------------------------------------|
|--5-5-5--5-5-5--3-3-3--1-1-1-1--------------------------------------------------|
|--5-5-5--5-5-5--3-3-3--1-1-1-1--------------------------------------------------|

Synthesizer. I think....

Then the end.



Open to ANY suggestions and corrections.
Thank you, Horizon Lovers:)

-Iamtheoceanusea♥
Tap to rate this tab
# A B C D E F G H I J K L M N O P Q R S T U V W X Y Z