Song name
# A B C D E F G H I J K L M N O P Q R S T U V W X Y Z

Bring Me The Horizon - Sleepwalking tab

SLEEPWALKING by Bring Me The Horizon
For Bridge 2, i'm not absolutely sure about the palm mutings, and for the part 
from 0:39 to 0:50, the rhythm could be slightly different.

Chorus/Main Riff
                                        EEEEE SSSS
E|--------------------------------------------------|
B|--------------------------------------------------|
G|--------------------------------------------------|
D|-8-88-88-8888--5555555--0-00-00-0000--33333-3333--| [2x]
A|-8-88-88-8888--5555555--0-00-00-0000--33333-3333--|
D|-8-88-88-8888--5555555--0-00-00-0000--33333-3333--|


[0:39] - [0:50]

E|----------------------------------------------|
B|----------------------------------------------|
G|----------------------------------------------|
D|----8888-------555-0000----3333---------------|  [2x]
A|----8888-------555-0000----3333---------------|
D|----8888-------555-0000----3333---------------|

B|---------------------|----------------|------------------|----------------|
G|---------------------|----------------|------------------|----------------|
D|---------------------|----------------|------------------|----------------|
A|---------------------|----------------|------------------|----------------|
D|-0-000-0-0-0-000-0-0-|0--00-0-0-0-0-0-|0----00-0-000-0-0-|0---00-0-0-0-0-0|
     ...   .   ...   .     ..   .   .         ..   ...   .      ..   .   .
B|---------------------|---------------|--------------------|--------------|
G|---------------------|---------------|--------------------|--------------|
D|---------------------|---------------|--------------------|--------------| 
A|---------------------|---------------|--------------------|--------------|
D|-0-000-0-0-0---------|--00-0-0-0-0-0-|0-000-0-0--0-000-0-0|0--00-0-0-0-00|
     ...   .              ..   .   .      ...   .    ...   .    ..   .   ..

[1:43] - [2:10]
E|-----------------------------------------------|
B|-----------------------------------------------|
G|-----------------------------------------------|
D|-8-88-88-8888--5555555--0-00-00-0000--3333333--| [3x]
A|-8-88-88-8888--5555555--0-00-00-0000--3333333--|
D|-8-88-88-8888--5555555--0-00-00-0000--3333333--|

E|-----------------------------------------------|
B|-----------------------------------------------|
G|-----------------------------------------------|
D|-8-88-88-8888--5555555--0-00-00-0000--11111----| 
A|-8-88-88-8888--5555555--0-00-00-0000--11111----|
D|-8-88-88-8888--5555555--0-00-00-0000--11111----|


Bridge 2

E|-----------------------------|------------------------------|
B|-----------------------------|------------------------------|
G|---------------7-----7-------|------------7-----------------|
D|---------------6-----6-------|------------6-----------------| 
A|---------------5-----5-------|------------5-------6666-3333-|
D|-000-000-0-1-0---000---000-0-|1-0-11-4-1-0---0000-----------|
           .         -     - -                    -

E|-----------------------------|------------------------------|
B|-----------------------------|------------------------------|
G|---------------7-----7-------|------------------------------|
D|---------------6-----6-------|------------------------------| 
A|---------------5-----5-------|---------------------6666-3333|
D|-000-000-0-1-0---000---000-0-|1-0-11-4-1-0---000-00---------|
           .         -     - -                   - ..
. palm mute
- indicates to play this note longer
E eighth note
S semiquaver
Tap to rate this tab
# A B C D E F G H I J K L M N O P Q R S T U V W X Y Z