Song name
# A B C D E F G H I J K L M N O P Q R S T U V W X Y Z

Bring Me The Horizon - Go To Hell For Heavens Sake tab

----------------------------------------------------------------------------
                    Go To Hell, For Heavenís Sake
                         Bring Me The Horizon
----------------------------------------------------------------------------

Well I never planned on learning/tabbing the guitars to this song, but I thought 
Iíd do it as a favor. It turned out to be very entertaining. Enjoy!

Username: dkm817 (same on X box live)
Youtube Cover: http://youtu.be/jPtrynE61RY
Email: guitardrums@rockfan.com

Guitar 1 Rhythmic (C G C F A D)
Guitar 2 Lead     (C G C F A D)
Guitar 3 Mixed    (C G C F A D)

NOTE: This was exported off of guitar pro.


Guitar 1

             E.  E.  E  E.  E.  E     E.  E.  E  E.  E.  E   
D||-------|------------------------|------------------------|
A||-------|------------------------|------------------------|
F||-------|------------------------|------------------------|
C||-------|--7---7---7--7---7---7--|--7---7---7--3---3---3--|
G||-------|--7---7---7--7---7---7--|--7---7---7--3---3---3--|
C||-------|--7---7---7--7---7---7--|--7---7---7--3---3---3--|


  E.  E.  E  E.  E.  E     E.  E.  E  E.  E.  E     E.  E.  E  E.  E.  E   
------------------------|------------------------|------------------------|
------------------------|------------------------|-------------3---3---3--|
------------------------|------------------------|-------------2---2---2--|
--5---5---5--5---5---5--|--5---5---5--5---5---5--|--0---0---0--0---0---0--|
--5---5---5--5---5---5--|--5---5---5--5---5---5--|--0---0---0--0---0---0--|
--5---5---5--5---5---5--|--5---5---5--5---5---5--|--0---0---0--0---0---0--|


  E.  E.  E  E.  E.  E     E.  E.  E  E.  E.  E     E.  E.  E  E.  E.  E   
------------------------|------------------------|------------------------|
-------------5---5---5--|------------------------|------------------------|
-------------4---4---4--|------------------------|------------------------|
--0---0---0--2---2---2--|--3---3---3--3---3---3--|--3---3---3--3---3---3--|
--0---0---0--2---2---2--|--3---3---3--3---3---3--|--3---3---3--3---3---3--|
--0---0---0--2---2---2--|--3---3---3--3---3---3--|--3---3---3--3---3---3--|


  E.  E.  E  E.  E.  E     E.  E.  E  E.  E.  E     E.  E.  E  E.  E.  E   
------------------------|------------------------|------------------------|
------------------------|------------------------|------------------------|
------------------------|------------------------|------------------------|
--7---7---7--7---7---7--|--7---7---7--3---3---3--|--5---5---5--5---5---5--|
--7---7---7--7---7---7--|--7---7---7--3---3---3--|--5---5---5--5---5---5--|
--7---7---7--7---7---7--|--7---7---7--3---3---3--|--5---5---5--5---5---5--|


  E.  E.  E  E.  E.  E     E.  E.  E  E.  E.  E     E.  E.  E  E.  E.  E   
------------------------|------------------------|------------------------|
------------------------|-------------3---3---3--|-------------5---5---5--|
------------------------|-------------2---2---2--|-------------4---4---4--|
--5---5---5--5---5---5--|--0---0---0--0---0---0--|--0---0---0--2---2---2--|
--5---5---5--5---5---5--|--0---0---0--0---0---0--|--0---0---0--2---2---2--|
--5---5---5--5---5---5--|--0---0---0--0---0---0--|--0---0---0--2---2---2--|


  E.  E.  E  E.  E.  E     E.  E.  E  E.  E.  E   
------------------------|------------------------|
------------------------|------------------------|
------------------------|------------------------|
--3---3---3--3---3---3--|--3---3---3--3---3---3--|
--3---3---3--3---3---3--|--3---3---3--3---3---3--|
--3---3---3--3---3---3--|--3---3---3--3---3---3--|


  S S S S S S S S S S S S S S S S    S S S S S S S S S S S S S S S S  
----------------------------------|----------------------------------|
----------------------------------|----------------------------------|
----------------------------------|----------------------------------|
----------------------------------|----------------------------------|
----------------------------------|----------------------------------|
--7-7-7-7-7-7-7-7-7-7-7-7-7-7-7-7-|--7-7-7-7-7-7-7-7-7-7-7-7-7-7-7-7-|


  S S S S S S S S S S S S S S S S    S S S S S S S S S S S S S S S S  
----------------------------------|----------------------------------|
----------------------------------|----------------------------------|
----------------------------------|----------------------------------|
----------------------------------|----------------------------------|
----------------------------------|----------------------------------|
--5-5-5-5-5-5-5-5-5-5-5-5-5-5-5-5-|--5-5-5-5-5-5-5-5-5-5-5-5-5-5-5-5-|


  S S S S S S S S S S S S S S S S  
----------------------------------|
----------------------------------|
----------------------------------|
----------------------------------|
----------------------------------|
--3-3-3-3-3-3-3-3-3-3-3-3-3-3-3-3-|


  S   S  S  S  S  S  S  S  S  S  S  S  Q        W                 
---------------------------------------------|-------------------|
---------------------------------------------|-------------------|
---------------------------------------------|-------------------|
---------------------------------------------|-------------------|
---------------------------------------------|-------------------|
--3S-14-14-14-14-14-14-14-14-14-14-14-14\----|-------------------|


  S   S  S  S  S  S  S  S  S  S  S  S  Q      
---------------------------------------------|
---------------------------------------------|
---------------------------------------------|
---------------------------------------------|
---------------------------------------------|
--3S-14-14-14-14-14-14-14-14-14-14-14-14\----|


  S S S S S S S S S S S S S S S S    S S S S S S S S S S S S S S S S  
----------------------------------|----------------------------------|
----------------------------------|----------------------------------|
----------------------------------|----------------------------------|
----------------------------------|----------------------------------|
----------------------------------|----------------------------------|
--7-7-7-7-7-7-7-7-7-7-7-7-7-7-7-7-|--7-7-7-7-7-7-7-7-7-7-7-7-7-7-7-7-|


  S S S S S S S S S S S S S S S S    S S S S S S S S S S S S S S S S  
----------------------------------|----------------------------------|
----------------------------------|----------------------------------|
----------------------------------|----------------------------------|
----------------------------------|----------------------------------|
----------------------------------|----------------------------------|
--5-5-5-5-5-5-5-5-5-5-5-5-5-5-5-5-|--5-5-5-5-5-5-5-5-5-5-5-5-5-5-5-5-|


  S S S S S S S S S S S S S S S S  
----------------------------------|
----------------------------------|
----------------------------------|
----------------------------------|
----------------------------------|
--3-3-3-3-3-3-3-3-3-3-3-3-3-3-3-3-|


  S   S  S  S  S  S  S  S  S  S  S  S  Q      
---------------------------------------------|
---------------------------------------------|
---------------------------------------------|
---------------------------------------------|
---------------------------------------------|
--3S-14-14-14-14-14-14-14-14-14-14-14-14\----|


  S S S S S S S S S S S S S S S S  
----------------------------------|
----------------------------------|
----------------------------------|
----------------------------------|
----------------------------------|
--3-3-3-3-3-3-3-3-3-3-3-3-3-3-3-3-|


  S   S  S  S  S  S  S  S  S  S  S  S  Q      
---------------------------------------------|
---------------------------------------------|
---------------------------------------------|
---------------------------------------------|
---------------------------------------------|
--3S-14-14-14-14-14-14-14-14-14-14-14-14\----|


   E   E   E   E   E   E   E   E      E   E   E   E   E   E   E   E   
----------17--15--17--15----------|----------17--15--17--15----------|
--18--17------------------18--17--|--18--17------------------18--17--|
----------------------------------|----------------------------------|
----------------------------------|----------------------------------|
----------------------------------|----------------------------------|
----------------------------------|----------------------------------|


   E   E    E    E   E   E    E    E      E   E    E    E   E   E    E    E   
--------------------------------------|--------------------------------------|
--18--17--(18)--17--18--17--(18)--17--|--18--17--(18)--17--18--17--(18)--17--|
--------------------------------------|--------------------------------------|
--------------------------------------|--------------------------------------|
--------------------------------------|--------------------------------------|
--------------------------------------|--------------------------------------|


  E.  E.  E  E.  E.  E     E.  E.  E  E.  E.  E     E.  E.  E  E.  E.  E   
------------------------|------------------------|------------------------|
------------------------|------------------------|------------------------|
------------------------|------------------------|------------------------|
--7---7---7--7---7---7--|--7---7---7--3---3---3--|--5---5---5--5---5---5--|
--7---7---7--7---7---7--|--7---7---7--3---3---3--|--5---5---5--5---5---5--|
--7---7---7--7---7---7--|--7---7---7--3---3---3--|--5---5---5--5---5---5--|


  E.  E.  E  E.  E.  E     E.  E.  E  E.  E.  E     E.  E.  E  E.  E.  E   
------------------------|------------------------|------------------------|
------------------------|-------------3---3---3--|-------------5---5---5--|
------------------------|-------------2---2---2--|-------------4---4---4--|
--5---5---5--5---5---5--|--0---0---0--0---0---0--|--0---0---0--2---2---2--|
--5---5---5--5---5---5--|--0---0---0--0---0---0--|--0---0---0--2---2---2--|
--5---5---5--5---5---5--|--0---0---0--0---0---0--|--0---0---0--2---2---2--|


  E  E  E  E  E  E  E  E     E  E  E  E  E  E  E  E     E.  E.  E  E.  E.  E   
--------------------------|--------------------------|------------------------|
--------------------------|--------------------------|------------------------|
--------------------------|--------------------------|------------------------|
--3--3--3--3--3--3--3--3--|--3--3--3--3--3--3--3--3--|--7---7---7--7---7---7--|
--3--3--3--3--3--3--3--3--|--3--3--3--3--3--3--3--3--|--7---7---7--7---7---7--|
--3--3--3--3--3--3--3--3--|--3--3--3--3--3--3--3--3--|--7---7---7--7---7---7--|


  E.  E.  E  E.  E.  E     E.  E.  E  E.  E.  E     E.  E.  E  E.  E.  E   
------------------------|------------------------|------------------------|
------------------------|------------------------|------------------------|
------------------------|------------------------|------------------------|
--7---7---7--3---3---3--|--5---5---5--5---5---5--|--5---5---5--5---5---5--|
--7---7---7--3---3---3--|--5---5---5--5---5---5--|--5---5---5--5---5---5--|
--7---7---7--3---3---3--|--5---5---5--5---5---5--|--5---5---5--5---5---5--|


  E.  E.  E  E.  E.  E     E.  E.  E  E.  E.  E     W                 
------------------------|------------------------|-------------------|
-------------3---3---3--|-------------5---5---5--|-------------------|
-------------2---2---2--|-------------4---4---4--|-------------------|
--0---0---0--0---0---0--|--0---0---0--2---2---2--|--3----------------|
--0---0---0--0---0---0--|--0---0---0--2---2---2--|--3----------------|
--0---0---0--0---0---0--|--0---0---0--2---2---2--|--3----------------|


  W                   W                   W                                     
-------------------|-------------------|-------------------|-------------------|
-------------------|-------------------|-------------------|-------------------|
-------------------|-------------------|-------------------|-------------------|
--L----------------|-------------------|-------------------|-------------------|
--L----------------|--0----------------|--L----------------|-------------------|
--L----------------|-------------------|-------------------|-------------------|


-------------------|-------------------|-------------------|
-------------------|-------------------|-------------------|
-------------------|-------------------|-------------------|
-------------------|-------------------|-------------------|
-------------------|-------------------|-------------------|
-------------------|-------------------|-------------------|


  S S S S S S S S S S S S S S S S    S S S S S S S S S S S S S S S S  
----------------------------------|----------------------------------|
----------------------------------|----------------------------------|
----------------------------------|----------------------------------|
----------------------------------|----------------------------------|
----------------------------------|----------------------------------|
--7-7-7-7-----7-7-7-7-----7-7-7-7-|------7-7-7-7-----7-7-7-7-7-7-7-7-|


  S S S S S S S S S S S S S S S S    S S S S S S S S S S S S S S S S  
----------------------------------|----------------------------------|
----------------------------------|----------------------------------|
----------------------------------|----------------------------------|
----------------------------------|----------------------------------|
----------------------------------|----------------------------------|
--5-5-5-5-----5-5-5-5-----5-5-5-5-|------5-5-5-5-----5-5-5-5-5-5-5-5-|


  S S S S S S S S S S S S S S S S  
----------------------------------|
----------------------------------|
----------------------------------|
----------------------------------|
----------------------------------|
--3-3-3-3-----3-3-3-3-----3-3-3-3-|


  S S  S  S  S  S S S  S  S  S  S  S  S  S  S  
----------------------------------------------|
----------------------------------------------|
----------------------------------------------|
----------------------------------------------|
----------------------------------------------|
------14-14-14-14-----14-14-14-14-14-14-14-14-|


  S S S S S S S S S S S S S S S S    S S  S  S  S  S S S S S S S S S S S  
----------------------------------|--------------------------------------|
----------------------------------|----------------------x-x-x-x---x-x-x-|
----------------------------------|----------------------x-x-x-x---x-x-x-|
----------------------------------|----------------------x-x-x-x---x-x-x-|
----------------------------------|----------------------x-x-x-x---x-x-x-|
--3-3-3-3-----3-3-3-3-----3-3-3-3-|------14-14-14-14---------------------|


  E.  E.  E  E.  E.  E     E.  E.  E  E.  E.  E     E.  E.  E  E.  E.  E   
------------------------|------------------------|------------------------|
------------------------|------------------------|------------------------|
------------------------|------------------------|------------------------|
--7---7---7--7---7---7--|--7---7---7--3---3---3--|--5---5---5--5---5---5--|
--7---7---7--7---7---7--|--7---7---7--3---3---3--|--5---5---5--5---5---5--|
--7---7---7--7---7---7--|--7---7---7--3---3---3--|--5---5---5--5---5---5--|


  E.  E.  E  E.  E.  E     E.  E.  E  E.  E.  E     E.  E.  E  E.  E.  E   
------------------------|------------------------|------------------------|
------------------------|-------------3---3---3--|-------------5---5---5--|
------------------------|-------------2---2---2--|-------------4---4---4--|
--5---5---5--5---5---5--|--0---0---0--0---0---0--|--0---0---0--2---2---2--|
--5---5---5--5---5---5--|--0---0---0--0---0---0--|--0---0---0--2---2---2--|
--5---5---5--5---5---5--|--0---0---0--0---0---0--|--0---0---0--2---2---2--|


  E  E  E  E  E  E  E  E     E  E  E  E  E  E  E  E     E.  E.  E  E.  E.  E   
--------------------------|--------------------------|------------------------|
--------------------------|--------------------------|------------------------|
--------------------------|--------------------------|------------------------|
--3--3--3--3--3--3--3--3--|--3--3--3--3--3--3--3--3--|--7---7---7--7---7---7--|
--3--3--3--3--3--3--3--3--|--3--3--3--3--3--3--3--3--|--7---7---7--7---7---7--|
--3--3--3--3--3--3--3--3--|--3--3--3--3--3--3--3--3--|--7---7---7--7---7---7--|


  E.  E.  E  E.  E.  E     E.  E.  E  E.  E.  E     E.  E.  E  E.  E.  E   
------------------------|------------------------|------------------------|
------------------------|------------------------|------------------------|
------------------------|------------------------|------------------------|
--7---7---7--3---3---3--|--5---5---5--5---5---5--|--5---5---5--5---5---5--|
--7---7---7--3---3---3--|--5---5---5--5---5---5--|--5---5---5--5---5---5--|
--7---7---7--3---3---3--|--5---5---5--5---5---5--|--5---5---5--5---5---5--|


  E.  E.  E  E.  E.  E     E.  E.  E  E.  E.  E     E  E  E  E  E  E  E  E   
------------------------|------------------------|--------------------------|
-------------3---3---3--|-------------5---5---5--|--------------------------|
-------------2---2---2--|-------------4---4---4--|--------------------------|
--0---0---0--0---0---0--|--0---0---0--2---2---2--|--3--3--3--3--3--3--3--3--|
--0---0---0--0---0---0--|--0---0---0--2---2---2--|--3--3--3--3--3--3--3--3--|
--0---0---0--0---0---0--|--0---0---0--2---2---2--|--3--3--3--3--3--3--3--3--|

                               NH   NH    NH    NH   NH    NH   
  E  E  E  E  E  E  E  E       E    E.    E.    E    E.    E.   
--------------------------|------------------------------------|
--------------------------|------------------------------------|
--------------------------|------------------------------------|
--3--3--3--3--3--3--3--3--|------------------------------------|
--3--3--3--3--3--3--3--3--|--<>0--<>0---<>0---<>0--<>0---<>0---|
--3--3--3--3--3--3--3--3--|------------------------------------|


    NH   NH    NH    NH  NH  NH  NH  NH  NH  NH  NH                           
    E    E.    E.    S   S   S   S   S   S   S   S    E.  E.  S S E.  E.  E   
---------------------------------------------------|-------------------------|
---------------------------------------------------|-------------------------|
---------------------------------------------------|-------------------------|
---------------------------------------------------|--7---7---x-x-7---7---7--|
---------------------------------------------------|--7---7---x-x-7---7---7--|
--<>5--<>5---<>5---<>5-<>5-<>5-<>5-<>5-<>5-<>5-<>5-|--7---7---x-x-7---7---7--|


  E   E.   E.   E.   E.   E      E.   E.   E   E.   E.   E   
-----------------------------|------------------------------|
-----------------------------|------------------------------|
-----------------------------|------------------------------|
--L--15---15---14---14---14--|--10---10---10--10---10---10--|
--L--------------------------|------------------------------|
--L--12---12---10---10---10--|---7----7----7---7----7----7--|


  E.  E.  E  S S S S S S S S    E.  E.  S S  E.   E.  S S  
-----------------------------|----------------------------|
-------------x-x-x-x---x-x-x-|----------------------------|
-------------x-x-x-x---x-x-x-|----------------------------|
--9---9---9--x-x-x-x---x-x-x-|--0---0---x-x-14---14---x-x-|
-------------x-x-x-x---x-x-x-|--0---0---x-x-----------x-x-|
--5---5---5------------------|--0---0---x-x-10---10---x-x-|


   E.   E.   E   S  S  S  S  S  S  S  S    E.  E.  S S E.  E.  E   
----------------------------------------|-------------------------|
----------------------------------------|-------------------------|
----------------------------------------|-------------------------|
--14---14---14--10-10-10-10-10-10-10-10-|--7---7---x-x-7---7---7--|
----------------------------------------|--7---7---x-x-7---7---7--|
--10---10---10---7--7--7--7--7--7--7--7-|--7---7---x-x-7---7---7--|


  E   E.   E.   E.   E.   E      E.   E.   E   E.   E.   E   
-----------------------------|------------------------------|
-----------------------------|------------------------------|
-----------------------------|------------------------------|
--L--15---15---14---14---14--|--10---10---10--10---10---10--|
--L--------------------------|------------------------------|
--L--12---12---10---10---10--|---7----7----7---7----7----7--|


  E.  E.  E  S S S S S S S S    E.  E.  S S  E.   E.  S S  
-----------------------------|----------------------------|
-------------x-x-x-x---x-x-x-|----------------------------|
-------------x-x-x-x---x-x-x-|----------------------------|
--9---9---9--x-x-x-x---x-x-x-|--0---0---x-x-14---14---x-x-|
-------------x-x-x-x---x-x-x-|--0---0---x-x-----------x-x-|
--5---5---5------------------|--0---0---x-x-10---10---x-x-|


   E.   E.   E   S  S  S  S  S  S  S  S    E.  E.  S S E.  E.  E   
----------------------------------------|-------------------------|
----------------------------------------|-------------------------|
----------------------------------------|-------------------------|
--14---14---14--10-10-10-10-10-10-10-10-|--7---7---x-x-7---7---7--|
----------------------------------------|--7---7---x-x-7---7---7--|
--10---10---10---7--7--7--7--7--7--7--7-|--7---7---x-x-7---7---7--|


  E  E  E  E  E  E  E  E           H        S S S S S S S S  
--------------------------|-----|---------------------------|
--------------------------|-----|-----------x-x-x-x---x-x-x-|
--------------------------|-----|-----------x-x-x-x---x-x-x-|
--L-----------------------|-----|-----------x-x-x-x---x-x-x-|
--L-----------------------|-----|-----------x-x-x-x---x-x-x-|
--L-----------------------|-----|---------------------------|


                        NH                                          
  E.  E.  S S E.  E.    E     W                   W                 
---------------------------|-------------------|-------------------|
---------------------------|-------------------|-------------------|
---------------------------|-------------------|-------------------|
--7---7---x-x-7---7---<>3--|--L----------------|--L----------------|
--7---7---x-x-7---7--------|-------------------|-------------------|
--7---7---x-x-7---7--------|-------------------|-------------------|


  H        S S S S S S S S    W                   H         H         
---------------------------|-------------------|---------------------|
-----------x-x-x-x---x-x-x-|-------------------|---------------------|
-----------x-x-x-x---x-x-x-|-------------------|---------------------|
--L--------x-x-x-x---x-x-x-|--7----------------|--L--------10--------|
-----------x-x-x-x---x-x-x-|-------------------|---------------------|
---------------------------|-------------------|---------------------|


  W                   H        H           W                 
-------------------|--------------------|-------------------|
-------------------|--8--------6--------|-------------------|
-------------------|--------------------|-------------------|
--9----------------|--------------------|--7----------------|
-------------------|--------------------|-------------------|
-------------------|--------------------|-------------------|


  H         H           W                   W                 
---------------------|-------------------|-------------------|
---------------------|-------------------|-------------------|
---------------------|-------------------|-------------------|
--L--------10--------|--9----------------|--L----------------|
---------------------|-------------------|-------------------|
---------------------|-------------------|-------------------|


  E.  E.  E  E.  E.  E     E.  E.  E  E.  E.  E     E.  E.  E  E.  E.  E   
------------------------|------------------------|------------------------|
------------------------|------------------------|------------------------|
------------------------|------------------------|------------------------|
--7---7---7--7---7---7--|--7---7---7--3---3---3--|--5---5---5--5---5---5--|
--7---7---7--7---7---7--|--7---7---7--3---3---3--|--5---5---5--5---5---5--|
--7---7---7--7---7---7--|--7---7---7--3---3---3--|--5---5---5--5---5---5--|


  E.  E.  E  E.  E.  E     E.  E.  E  E.  E.  E     E.  E.  E  E.  E.  E   
------------------------|------------------------|------------------------|
------------------------|-------------3---3---3--|-------------5---5---5--|
------------------------|-------------2---2---2--|-------------4---4---4--|
--5---5---5--5---5---5--|--0---0---0--0---0---0--|--0---0---0--2---2---2--|
--5---5---5--5---5---5--|--0---0---0--0---0---0--|--0---0---0--2---2---2--|
--5---5---5--5---5---5--|--0---0---0--0---0---0--|--0---0---0--2---2---2--|


  E.  E.  E  E.  E.  E     E.  E.  E  E.  E.  E     E.  E.  E  E.  E.  E   
------------------------|------------------------|------------------------|
------------------------|------------------------|------------------------|
------------------------|------------------------|------------------------|
--3---3---3--3---3---3--|--3---3---3--3---3---3--|--7---7---7--7---7---7--|
--3---3---3--3---3---3--|--3---3---3--3---3---3--|--7---7---7--7---7---7--|
--3---3---3--3---3---3--|--3---3---3--3---3---3--|--7---7---7--7---7---7--|


  E.  E.  E  E.  E.  E     E.  E.  E  E.  E.  E     E.  E.  E  E.  E.  E   
------------------------|------------------------|------------------------|
------------------------|------------------------|------------------------|
------------------------|------------------------|------------------------|
--7---7---7--3---3---3--|--5---5---5--5---5---5--|--5---5---5--5---5---5--|
--7---7---7--3---3---3--|--5---5---5--5---5---5--|--5---5---5--5---5---5--|
--7---7---7--3---3---3--|--5---5---5--5---5---5--|--5---5---5--5---5---5--|


  E.  E.  E  E.  E.  E     E.  E.  E  E.  E.  E     E.  E.  E  E.  E.  E   
------------------------|------------------------|------------------------|
-------------3---3---3--|-------------5---5---5--|------------------------|
-------------2---2---2--|-------------4---4---4--|------------------------|
--0---0---0--0---0---0--|--0---0---0--2---2---2--|--3---3---3--3---3---3--|
--0---0---0--0---0---0--|--0---0---0--2---2---2--|--3---3---3--3---3---3--|
--0---0---0--0---0---0--|--0---0---0--2---2---2--|--3---3---3--3---3---3--|


  E.  E.  E  E.  E.  E     E  E  E  E  E  E  E  E     E  E  E  E  E  E  E  E   
------------------------|--------------------------|--------------------------|
------------------------|--------------------------|--------------------------|
------------------------|--------------------------|--------------------------|
--3---3---3--3---3---3--|--7--7--7--7--7--7--7--7--|--7--7--7--7--3--3--3--3--|
--3---3---3--3---3---3--|--7--7--7--7--7--7--7--7--|--7--7--7--7--3--3--3--3--|
--3---3---3--3---3---3--|--7--7--7--7--7--7--7--7--|--7--7--7--7--3--3--3--3--|


  E  E  E  E  E  E  E  E     E  E  E  E  E  E  E  E     W                 
--------------------------|--------------------------|-------------------|
--------------------------|--------------------------|-------------------|
--------------------------|--------------------------|-------------------|
--5--5--5--5--5--5--5--5--|--5--5--5--5--5--5--5--5--|--0----------------|
--5--5--5--5--5--5--5--5--|--5--5--5--5--5--5--5--5--|--0----------------|
--5--5--5--5--5--5--5--5--|--5--5--5--5--5--5--5--5--|--0----------------|


  W                   W                   W                 
-------------------|-------------------|-------------------|
-------------------|-------------------|-------------------|
-------------------|-------------------|-------------------|
--L----------------|--L----------------|--L----------------|
--L----------------|--L----------------|--L----------------|
--L----------------|--L----------------|--L----------------|


-------------------||
-------------------||
-------------------||
-------------------||
-------------------||
-------------------||


Guitar 2

              E.   E.   E   E.   E.   E      E.   E.   E   E.   E.   E   
D||-------|------------------------------|------------------------------|
A||-------|--10---10---10--10---10---10--|--10---10---10----------------|
F||-------|------------------------------|----------------10---10---10--|
C||-------|---7----7----7---7----7----7--|---7----7----7----------------|
G||-------|------------------------------|-----------------8----8----8--|
C||-------|------------------------------|------------------------------|


   E.   E.   E   E.   E.   E     E.  E.  E  E.  E.  E   
------------------------------|------------------------|
--12---12---12--12---12---12--|--8---8---8--8---8---8--|
------------------------------|------------------------|
---9----9----9---9----9----9--|--5---5---5--5---5---5--|
------------------------------|------------------------|
------------------------------|------------------------|


   E.   E.   E   E.   E.   E      E.   E.   E   E.   E.   E   
------------------------------|------------------------------|
--10---10---10--10---10---10--|--10---10---10--10---10---10--|
------------------------------|------------------------------|
---7----7----7---7----7----7--|---7----7----7---7----7----7--|
------------------------------|------------------------------|
------------------------------|------------------------------|


   E.   E.   E   E.   E.   E      E.   E.   E   S  S  S  S  S  S  S  S  
------------------------------|----------------------------------------|
------------------------------|----------------10-10-10-10-10-10-10-10-|
--10---10---10--10---10---10--|--10---10---10--------------------------|
------------------------------|-----------------7--7--7--7--7--7--7--7-|
---8----8----8---8----8----8--|---8----8----8--------------------------|
------------------------------|----------------------------------------|


       PM   PM     PM   PM         PM   PM     PM   PM  
   E.  E.   E  E.  E.   E      E.  E.   E  E.  E.   E   
---------------------------|---------------------------|
--10-----------8-----------|--10-----------8-----------|
-------9-----------9-------|-------9-----------9-------|
-----------10----------10--|-----------10----------10--|
---------------------------|---------------------------|
---------------------------|---------------------------|


        PM   PM       PM   PM          PM   PM       PM   PM  
   E.   E.   E   E.   E.   E      E.   E.   E   E.   E.   E   
------------------------------|--13----L----L----------------|
------------------------------|--13----L----L----------------|
--10------------10------------|----------------10----L----L--|
-------14---14-------14---14--|-------14---14-------14---14--|
------------------------------|------------------------------|
------------------------------|------------------------------|


       PM   PM     PM   PM         PM   PM     PM   PM  
   E.  E.   E  E.  E.   E      E.  E.   E  E.  E.   E   
---------------------------|---------------------------|
--10-----------8-----------|--10-----------8-----------|
-------9-----------9-------|-------9-----------9-------|
-----------10----------10--|-----------10----------10--|
---------------------------|---------------------------|
---------------------------|---------------------------|


        PM   PM       PM   PM          PM   PM       PM   PM  
   E.   E.   E   E.   E.   E      E.   E.   E   E.   E.   E   
------------------------------|--13----L----L----------------|
------------------------------|--13----L----L----------------|
--10------------10------------|----------------10----L----L--|
-------14---14-------14---14--|-------14---14-------14---14--|
------------------------------|------------------------------|
------------------------------|------------------------------|


   W                   W                                     
--------------------|-------------------|-------------------|
--------------------|-------------------|-------------------|
--------------------|-------------------|-------------------|
---L----------------|--L----------------|-------------------|
--------------------|-------------------|-------------------|
--------------------|-------------------|-------------------|


-------------------|-------------------|-------------------|-------------------|
-------------------|-------------------|-------------------|-------------------|
-------------------|-------------------|-------------------|-------------------|
-------------------|-------------------|-------------------|-------------------|
-------------------|-------------------|-------------------|-------------------|
-------------------|-------------------|-------------------|-------------------|


                      S S S S S S S S S S S S S S S S  
-------------------|----------------------------------|
-------------------|----------------------------------|
-------------------|----------------------------------|
-------------------|----------------------------------|
-------------------|----------------------------------|
-------------------|--7-7-7-7-7-7-7-7-7-7-7-7-7-7-7-7-|


  S S S S S S S S S S S S S S S S    S S S S S S S S S S S S S S S S  
----------------------------------|----------------------------------|
----------------------------------|----------------------------------|
----------------------------------|----------------------------------|
----------------------------------|----------------------------------|
----------------------------------|----------------------------------|
--7-7-7-7-7-7-7-7-7-7-7-7-7-7-7-7-|--5-5-5-5-5-5-5-5-5-5-5-5-5-5-5-5-|


  S S S S S S S S S S S S S S S S    S S S S S S S S S S S S S S S S  
----------------------------------|----------------------------------|
----------------------------------|----------------------------------|
----------------------------------|----------------------------------|
----------------------------------|----------------------------------|
----------------------------------|----------------------------------|
--5-5-5-5-5-5-5-5-5-5-5-5-5-5-5-5-|--3-3-3-3-3-3-3-3-3-3-3-3-3-3-3-3-|


  S   S  S  S  S  S  S  S  S  S  S  S  Q      
---------------------------------------------|
---------------------------------------------|
---------------------------------------------|
---------------------------------------------|
---------------------------------------------|
--3S-14-14-14-14-14-14-14-14-14-14-14-14\----|


  S S S S S S S S S S S S S S S S  
----------------------------------|
----------------------------------|
----------------------------------|
----------------------------------|
----------------------------------|
--3-3-3-3-3-3-3-3-3-3-3-3-3-3-3-3-|


  S   S  S  S  S  S  S  S  S  S  S  S  Q        Q    Q    H         
---------------------------------------------|---------------------|
---------------------------------------------|-------8----L--------|
---------------------------------------------|-------9----L--------|
---------------------------------------------|--7----L----L--------|
---------------------------------------------|---------------------|
--3S-14-14-14-14-14-14-14-14-14-14-14-14\----|---------------------|


  W                    Q     Q    Q      Q        W                 
-------------------|---------------------------|-------------------|
--L----------------|--10----------L------L-----|--L----------------|
--L----------------|--------12----L------L-----|--L----------------|
--L----------------|-------------------(14)----|--L----------------|
-------------------|---------------------------|-------------------|
-------------------|---------------------------|-------------------|


   E.   E.   E   E.   E.   E      E.   E.   E   E.   E.   E   
------------------------------|------------------------------|
--10---10---10--10---10---10--|--10---10---10----------------|
------------------------------|----------------10---10---10--|
---7----7----7---7----7----7--|---7----7----7----------------|
------------------------------|-----------------8----8----8--|
------------------------------|------------------------------|


   E.   E.   E   E.   E.   E     E.  E.  E  E.  E.  E   
------------------------------|------------------------|
--12---12---12--12---12---12--|--8---8---8--8---8---8--|
------------------------------|------------------------|
---9----9----9---9----9----9--|--5---5---5--5---5---5--|
------------------------------|------------------------|
------------------------------|------------------------|


   E.   E.   E   E.   E.   E      E.   E.   E   E.   E.   E   
------------------------------|------------------------------|
--10---10---10--10---10---10--|--10---10---10--10---10---10--|
------------------------------|------------------------------|
---7----7----7---7----7----7--|---7----7----7---7----7----7--|
------------------------------|------------------------------|
------------------------------|------------------------------|


   E   E   E   E   E   E   E   E      E   E   E   E   S  S  S  S  S  S  S  S  
----------------------------------|------------------------------------------|
----------------------------------|------------------10-10-10-10-10-10-10-10-|
--10--10--10--10--10--10--10--10--|--10--10--10--10--------------------------|
----------------------------------|-------------------7--7--7--7--7--7--7--7-|
---8---8---8---8---8---8---8---8--|---8---8---8---8--------------------------|
----------------------------------|------------------------------------------|


       PM   PM     PM   PM         PM   PM     PM   PM  
   E.  E.   E  E.  E.   E      E.  E.   E  E.  E.   E   
---------------------------|---------------------------|
--10-----------8-----------|--10-----------8-----------|
-------9-----------9-------|-------9-----------9-------|
-----------10----------10--|-----------10----------10--|
---------------------------|---------------------------|
---------------------------|---------------------------|


        PM   PM       PM   PM          PM   PM       PM   PM  
   E.   E.   E   E.   E.   E      E.   E.   E   E.   E.   E   
------------------------------|--13----L----L----------------|
------------------------------|--13----L----L----------------|
--10------------10------------|----------------10----L----L--|
-------14---14-------14---14--|-------14---14-------14---14--|
------------------------------|------------------------------|
------------------------------|------------------------------|


       PM   PM     PM   PM         PM   PM     PM   PM                       
   E.  E.   E  E.  E.   E      E.  E.   E  E.  E.   E      W                 
---------------------------|---------------------------|--------------------|
--10-----------8-----------|--10-----------8-----------|--------------------|
-------9-----------9-------|-------9-----------9-------|--10----------------|
-----------10----------10--|-----------10----------10--|--------------------|
---------------------------|---------------------------|--------------------|
---------------------------|---------------------------|--------------------|


  W                   W                   W                                     
-------------------|-------------------|-------------------|-------------------|
-------------------|-------------------|-------------------|-------------------|
--L----------------|--9----------------|--L----------------|-------------------|
-------------------|-------------------|-------------------|-------------------|
-------------------|-------------------|-------------------|-------------------|
-------------------|-------------------|-------------------|-------------------|


-------------------|-------------------|-------------------|
-------------------|-------------------|-------------------|
-------------------|-------------------|-------------------|
-------------------|-------------------|-------------------|
-------------------|-------------------|-------------------|
-------------------|-------------------|-------------------|


   Echo Effect                                                               
   E          E    E   E   E   E   E   E      E   Q      E   E   E   E   E   
--12----------L\--------------------------|-----------------15--------------|
--13----------L\--13--15--17--15--17--15--|--17--17b----17--13--15------13--|
------------------------------------------|-------------------------16------|
------------------------------------------|---------------------------------|
------------------------------------------|---------------------------------|
------------------------------------------|---------------------------------|


   E  E    E   E   E   E   E   E      E   Q      E   Q      Q      
--12--L\--------------------------|-----------------15b----15b----|
--13--L\--13------13--------------|------17b----17----------------|
--------------12------12--14--12--|--14---------------------------|
----------------------------------|-------------------------------|
----------------------------------|-------------------------------|
----------------------------------|-------------------------------|


   E  E    E   E   E   E   E   E      E   Q      E   E   E   E   E   
--12--L\--------------------------|-----------------15------15------|
--13--L\--13--15--13--15----------|------17b----17------15------15--|
--------------------------14--12--|--14-----------------------------|
----------------------------------|---------------------------------|
----------------------------------|---------------------------------|
----------------------------------|---------------------------------|


   E   E   E   E   E   E   E   E      E   E   E   E  E  E  E  E   
--12---L--12---L--12---L--12---L--|--10---L--10---L--------------|
------13---L--13---L--13---L--13--|---L--13---L--13--------------|
----------------------------------|------------------------------|
----------------------------------|------------------------------|
----------------------------------|------------------------------|
----------------------------------|------------------------------|


   E.   E.   E   E.   E.   E      E.   E.   E   E.   E.   E   
------------------------------|------------------------------|
--10---10---10--10---10---10--|--10---10---10----------------|
------------------------------|----------------10---10---10--|
---7----7----7---7----7----7--|---7----7----7----------------|
------------------------------|-----------------8----8----8--|
------------------------------|------------------------------|


   E.   E.   E   E.   E.   E     E.  E.  E  E.  E.  E   
------------------------------|------------------------|
--12---12---12--12---12---12--|--8---8---8--8---8---8--|
------------------------------|------------------------|
---9----9----9---9----9----9--|--5---5---5--5---5---5--|
------------------------------|------------------------|
------------------------------|------------------------|


   E.   E.   E   E.   E.   E      E.   E.   E   E.   E.   E   
------------------------------|------------------------------|
--10---10---10--10---10---10--|--10---10---10--10---10---10--|
------------------------------|------------------------------|
---7----7----7---7----7----7--|---7----7----7---7----7----7--|
------------------------------|------------------------------|
------------------------------|------------------------------|


   E   E   E   E   E   E   E   E      E   E   E   E   S  S  S  S  S  S  S  S  
----------------------------------|------------------------------------------|
----------------------------------|------------------10-10-10-10-10-10-10-10-|
--10--10--10--10--10--10--10--10--|--10--10--10--10--------------------------|
----------------------------------|-------------------7--7--7--7--7--7--7--7-|
---8---8---8---8---8---8---8---8--|---8---8---8---8--------------------------|
----------------------------------|------------------------------------------|


       PM   PM     PM   PM         PM   PM     PM   PM  
   E.  E.   E  E.  E.   E      E.  E.   E  E.  E.   E   
---------------------------|---------------------------|
--10-----------8-----------|--10-----------8-----------|
-------9-----------9-------|-------9-----------9-------|
-----------10----------10--|-----------10----------10--|
---------------------------|---------------------------|
---------------------------|---------------------------|


        PM   PM       PM   PM          PM   PM       PM   PM  
   E.   E.   E   E.   E.   E      E.   E.   E   E.   E.   E   
------------------------------|--13----L----L----------------|
------------------------------|--13----L----L----------------|
--10------------10------------|----------------10----L----L--|
-------14---14-------14---14--|-------14---14-------14---14--|
------------------------------|------------------------------|
------------------------------|------------------------------|


       PM   PM     PM   PM         PM   PM     PM   PM  
   E.  E.   E  E.  E.   E      E.  E.   E  E.  E.   E   
---------------------------|---------------------------|
--10-----------8-----------|--10-----------8-----------|
-------9-----------9-------|-------9-----------9-------|
-----------10----------10--|-----------10----------10--|
---------------------------|---------------------------|
---------------------------|---------------------------|


        PM   PM       PM   PM          PM   PM       PM   PM  
   E.   E.   E   E.   E.   E      E.   E.   E   E.   E.   E   
------------------------------|--13----L----L----------------|
------------------------------|--13----L----L----------------|
--10------------10------------|----------------10----L----L--|
-------14---14-------14---14--|-------14---14-------14---14--|
------------------------------|------------------------------|
------------------------------|------------------------------|


    NH                                                                        
    W                   W                                                     
---------------------|-------------------|-----|-----|-----|-----|-----|-----|
---------------------|-------------------|-----|-----|-----|-----|-----|-----|
---------------------|-------------------|-----|-----|-----|-----|-----|-----|
--<>3----------------|--L----------------|-----|-----|-----|-----|-----|-----|
--<>3----------------|--L----------------|-----|-----|-----|-----|-----|-----|
---------------------|-------------------|-----|-----|-----|-----|-----|-----|


-----|-----|-----|-----|-----|-----|-----|-----|-----|-----|-----|-----|-----|
-----|-----|-----|-----|-----|-----|-----|-----|-----|-----|-----|-----|-----|
-----|-----|-----|-----|-----|-----|-----|-----|-----|-----|-----|-----|-----|
-----|-----|-----|-----|-----|-----|-----|-----|-----|-----|-----|-----|-----|
-----|-----|-----|-----|-----|-----|-----|-----|-----|-----|-----|-----|-----|
-----|-----|-----|-----|-----|-----|-----|-----|-----|-----|-----|-----|-----|


         W                   H        Q     Q       W                 
-----|--------------------|----------------------|-------------------|
-----|--------------------|----------------12----|--L----------------|
-----|--12----------------|--L--------L----------|-------------------|
-----|--------------------|----------------------|-------------------|
-----|--------------------|----------------------|-------------------|
-----|--------------------|----------------------|-------------------|


  W                    W                   E   E.   E.   E.   E.   E   
-------------------|--------------------|-----------------------------|
--L----------------|--------------------|-----13---13---13---13---13--|
-------------------|--12----------------|--L--------------------------|
-------------------|--------------------|-----------------------------|
-------------------|--------------------|-----------------------------|
-------------------|--------------------|-----------------------------|


                                                 PM   PM     PM   PM  
   W                    W                    E.  E.   E  E.  E.   E   
--------------------|--------------------|---------------------------|
--12----------------|--15----------------|--10-----------8-----------|
--------------------|--------------------|-------9-----------9-------|
--------------------|--------------------|-----------10----------10--|
--------------------|--------------------|---------------------------|
--------------------|--------------------|---------------------------|


       PM   PM     PM   PM          PM   PM       PM   PM  
   E.  E.   E  E.  E.   E      E.   E.   E   E.   E.   E   
---------------------------|------------------------------|
--10-----------8-----------|------------------------------|
-------9-----------9-------|--10------------10------------|
-----------10----------10--|-------14---14-------14---14--|
---------------------------|------------------------------|
---------------------------|------------------------------|


        PM   PM       PM   PM         PM   PM     PM   PM  
   E.   E.   E   E.   E.   E      E.  E.   E  E.  E.   E   
--13----L----L----------------|---------------------------|
--13----L----L----------------|--10-----------8-----------|
----------------10----L----L--|-------9-----------9-------|
-------14---14-------14---14--|-----------10----------10--|
------------------------------|---------------------------|
------------------------------|---------------------------|


       PM   PM     PM   PM          PM   PM       PM   PM  
   E.  E.   E  E.  E.   E      E.   E.   E   E.   E.   E   
---------------------------|------------------------------|
--10-----------8-----------|------------------------------|
-------9-----------9-------|--10------------10------------|
-----------10----------10--|-------14---14-------14---14--|
---------------------------|------------------------------|
---------------------------|------------------------------|


        PM   PM       PM   PM         PM   PM     PM   PM  
   E.   E.   E   E.   E.   E      E.  E.   E  E.  E.   E   
--13----L----L----------------|---------------------------|
--13----L----L----------------|--10-----------8-----------|
----------------10----L----L--|-------9-----------9-------|
-------14---14-------14---14--|-----------10----------10--|
------------------------------|---------------------------|
------------------------------|---------------------------|


       PM   PM     PM   PM          PM   PM       PM   PM  
   E.  E.   E  E.  E.   E      E.   E.   E   E.   E.   E   
---------------------------|------------------------------|
--10-----------8-----------|------------------------------|
-------9-----------9-------|--10------------10------------|
-----------10----------10--|-------14---14-------14---14--|
---------------------------|------------------------------|
---------------------------|------------------------------|


        PM   PM       PM   PM         PM   PM     PM   PM  
   E.   E.   E   E.   E.   E      E.  E.   E  E.  E.   E   
--13----L----L----------------|---------------------------|
--13----L----L----------------|--10-----------8-----------|
----------------10----L----L--|-------9-----------9-------|
-------14---14-------14---14--|-----------10----------10--|
------------------------------|---------------------------|
------------------------------|---------------------------|


       PM   PM     PM   PM          PM   PM       PM   PM  
   E.  E.   E  E.  E.   E      E.   E.   E   E.   E.   E   
---------------------------|------------------------------|
--10-----------8-----------|------------------------------|
-------9-----------9-------|--10------------10------------|
-----------10----------10--|-------14---14-------14---14--|
---------------------------|------------------------------|
---------------------------|------------------------------|


        PM   PM       PM   PM         PM   PM     PM   PM  
   E.   E.   E   E.   E.   E      E.  E.   E  E.  E.   E   
--13----L----L----------------|---------------------------|
--13----L----L----------------|--10-----------8-----------|
----------------10----L----L--|-------9-----------9-------|
-------14---14-------14---14--|-----------10----------10--|
------------------------------|---------------------------|
------------------------------|---------------------------|


       PM   PM     PM   PM          PM   PM       PM   PM  
   E.  E.   E  E.  E.   E      E.   E.   E   E.   E.   E   
---------------------------|------------------------------|
--10-----------8-----------|------------------------------|
-------9-----------9-------|--10------------10------------|
-----------10----------10--|-------14---14-------14---14--|
---------------------------|------------------------------|
---------------------------|------------------------------|


        PM   PM       PM   PM                                           
   E.   E.   E   E.   E.   E      W                   W                 
--13----L----L----------------|--------------------|-------------------|
--13----L----L----------------|--10----------------|--L----------------|
----------------10----L----L--|--------------------|-------------------|
-------14---14-------14---14--|--------------------|-------------------|
------------------------------|--------------------|-------------------|
------------------------------|--------------------|-------------------|


  W                   W                                      
-------------------|-------------------|-------------------||
--L----------------|--L----------------|-------------------||
-------------------|-------------------|-------------------||
-------------------|-------------------|-------------------||
-------------------|-------------------|-------------------||
-------------------|-------------------|-------------------||


Guitar 3


      E  H        Q    E      W                   H         H         
D||-----------------------|--------------------|---------------------|
A||--10--L--------L----L--|--10----------------|--L--------13--------|
F||-----------------------|--------------------|---------------------|
C||---7--L--------L----L--|---7----------------|--L--------10--------|
G||-----------------------|--------------------|---------------------|
C||-----------------------|--------------------|---------------------|


   W                    H         H            W                 
--------------------|----------------------|--------------------|
--12----------------|----------------------|--10----------------|
--------------------|--12--------10--------|--------------------|
---9----------------|----------------------|---7----------------|
--------------------|--10---------8--------|--------------------|
--------------------|----------------------|--------------------|


  W                   W                   W                 
-------------------|--8----------------|--L----------------|
--L----------------|--L----------------|--L----------------|
-------------------|-------------------|-------------------|
--L----------------|--L----------------|--L----------------|
-------------------|-------------------|-------------------|
-------------------|-------------------|-------------------|


   W                   H         H            W                 
--------------------|---------------------|--------------------|
--10----------------|--L--------13--------|--12----------------|
--------------------|---------------------|--------------------|
---7----------------|--L--------10--------|---9----------------|
--------------------|---------------------|--------------------|
--------------------|---------------------|--------------------|


   H         H            W                   W                 
----------------------|--------------------|-------------------|
----------------------|--10----------------|--L----------------|
--12--------10--------|--------------------|-------------------|
----------------------|---7----------------|--L----------------|
--10---------8--------|--------------------|-------------------|
----------------------|--------------------|-------------------|


                                           Echo Effect       
  W                   W                    W                 
--8----------------|--L----------------|--------------------|
--L----------------|--L----------------|--------------------|
-------------------|-------------------|--14----------------|
--L----------------|--L----------------|--------------------|
-------------------|-------------------|--------------------|
-------------------|-------------------|--------------------|


  E   E  E    E  E    E  E    E      H         Q    E   E     W                 
---------------------------------|--13--------13----L--12--|--L----------------|
---------------------------------|-------------------------|-------------------|
--L--14--L\--14--L\--14--L\--14--|-------------------------|-------------------|
---------------------------------|-------------------------|-------------------|
---------------------------------|-------------------------|-------------------|
---------------------------------|-------------------------|-------------------|


  E.   H        Q    S    W                                     
-----------------------|-------------------|-------------------|
-----------------------|-------------------|-------------------|
--7S---9--------L----L-|--L----------------|-------------------|
-----------------------|-------------------|-------------------|
-----------------------|-------------------|-------------------|
-----------------------|-------------------|-------------------|


                      S S S S S S S S S S S S S S S S  
-------------------|--5-5-5-5-----5-5-5-5-----5-5-5-5-|
-------------------|----------------------------------|
-------------------|--5-5-5-5-----5-5-5-5-----5-5-5-5-|
-------------------|--7-7-7-7-----7-7-7-7-----7-7-7-7-|
-------------------|----------------------------------|
-------------------|----------------------------------|


  S S S S S S S S S S S S S S S S    S S S S S S S S S S S S S S S S  
------5-5-5-5-----5-5-5-5-5-5-5-5-|--5-5-5-5-----5-5-5-5-----5-5-5-5-|
----------------------------------|----------------------------------|
------5-5-5-5-----5-5-5-5-5-5-5-5-|--4-4-4-4-----4-4-4-4-----4-4-4-4-|
------7-7-7-7-----7-7-7-7-7-7-7-7-|--7-7-7-7-----7-7-7-7-----7-7-7-7-|
----------------------------------|----------------------------------|
----------------------------------|----------------------------------|


  S S S S S S S S S S S S S S S S  
------5-5-5-5-----5-5-5-5-5-5-5-5-|
----------------------------------|
------4-4-4-4-----4-4-4-4-4-4-4-4-|
------7-7-7-7-----7-7-7-7-7-7-7-7-|
----------------------------------|
----------------------------------|


   S  S  S  S S S  S  S  S  S S S  S  S  S  S  
----------------------------------------------|
--10-10-10-10-----10-10-10-10-----10-10-10-10-|
----------------------------------------------|
---7--7--7--7------7--7--7--7------7--7--7--7-|
----------------------------------------------|
----------------------------------------------|


  S S  S  S  S  S S S  S  S  S  S  S  S  S  S  
----------------------------------------------|
------10-10-10-10-----10-10-10-10-10-10-10-10-|
----------------------------------------------|
-------7--7--7--7------7--7--7--7--7--7--7--7-|
----------------------------------------------|
----------------------------------------------|


   S  S  S  S S S  S  S  S  S S S  S  S  S  S  
---8--8--8--8------8--8--8--8------7--7--7--7-|
--10-10-10-10-----10-10-10-10-----10-10-10-10-|
----------------------------------------------|
---7--7--7--7------7--7--7--7------7--7--7--7-|
----------------------------------------------|
----------------------------------------------|


  S S S S S S S S S S S S S S S S                             W                 
------5-5-5-5-----5-5-5-5-5-5-5-5-|-----|-----|-----|-----|--------------------|
------8-8-8-8-----8-8-8-8-8-8-8-8-|-----|-----|-----|-----|--10----------------|
----------------------------------|-----|-----|-----|-----|--------------------|
------7-7-7-7-----7-7-7-7-7-7-7-7-|-----|-----|-----|-----|---7----------------|
----------------------------------|-----|-----|-----|-----|--------------------|
----------------------------------|-----|-----|-----|-----|--------------------|


  H         H            W                    H         H         
---------------------|--------------------|----------------------|
--L--------13--------|--12----------------|----------------------|
---------------------|--------------------|--12--------10--------|
--L--------10--------|---9----------------|----------------------|
---------------------|--------------------|--10---------8--------|
---------------------|--------------------|----------------------|


   W                   W                   W                 
--------------------|-------------------|--8----------------|
--10----------------|--L----------------|--L----------------|
--------------------|-------------------|-------------------|
---7----------------|--L----------------|--L----------------|
--------------------|-------------------|-------------------|
--------------------|-------------------|-------------------|


  W                    W                   H         H         
--L----------------|--------------------|---------------------|
--L----------------|--10----------------|--L--------13--------|
-------------------|--------------------|---------------------|
--L----------------|---7----------------|--L--------10--------|
-------------------|--------------------|---------------------|
-------------------|--------------------|---------------------|


   W                    H         H            W                 
--------------------|----------------------|--------------------|
--12----------------|----------------------|--10----------------|
--------------------|--12--------10--------|--------------------|
---9----------------|----------------------|---7----------------|
--------------------|--10---------8--------|--------------------|
--------------------|----------------------|--------------------|


  W                   W                   W                 
-------------------|--8----------------|--L----------------|
--L----------------|--L----------------|--L----------------|
-------------------|-------------------|-------------------|
--L----------------|--L----------------|--L----------------|
-------------------|-------------------|-------------------|
-------------------|-------------------|-------------------|


  S S S S S S S S S S S S S S S S    S S S S S S S S S S S S S S S S  
--5-5-5-5-----5-5-5-5-----5-5-5-5-|------5-5-5-5-----5-5-5-5-5-5-5-5-|
----------------------------------|----------------------------------|
--5-5-5-5-----5-5-5-5-----5-5-5-5-|------5-5-5-5-----5-5-5-5-5-5-5-5-|
--7-7-7-7-----7-7-7-7-----7-7-7-7-|------7-7-7-7-----7-7-7-7-7-7-7-7-|
----------------------------------|----------------------------------|
----------------------------------|----------------------------------|


  S S S S S S S S S S S S S S S S    S S S S S S S S S S S S S S S S  
--5-5-5-5-----5-5-5-5-----5-5-5-5-|------5-5-5-5-----5-5-5-5-5-5-5-5-|
----------------------------------|----------------------------------|
--4-4-4-4-----4-4-4-4-----4-4-4-4-|------4-4-4-4-----4-4-4-4-4-4-4-4-|
--7-7-7-7-----7-7-7-7-----7-7-7-7-|------7-7-7-7-----7-7-7-7-7-7-7-7-|
----------------------------------|----------------------------------|
----------------------------------|----------------------------------|


   S  S  S  S S S  S  S  S  S S S  S  S  S  S  
----------------------------------------------|
----------------------------------------------|
---9--9--9--9------9--9--9--9------9--9--9--9-|
--10-10-10-10-----10-10-10-10-----10-10-10-10-|
---7--7--7--7------7--7--7--7------7--7--7--7-|
----------------------------------------------|


  S S S S S S S S S S S S S S S S    S S S S S S S S S S S S S S S S  
----------------------------------|--5-5-5-5-----5-5-5-5-----5-5-5-5-|
----------------------------------|----------------------------------|
------9-9-9-9-----9-9-9-9-9-9-9-9-|--5-5-5-5-----5-5-5-5-----5-5-5-5-|
----------------------------------|--7-7-7-7-----7-7-7-7-----7-7-7-7-|
------7-7-7-7-----7-7-7-7-7-7-7-7-|----------------------------------|
----------------------------------|----------------------------------|


  S S S S S S S S S S S S S S S S    S S S S S S S S S S S S S S S S  
------5-5-5-5-----5-5-5-5-5-5-5-5-|--5-5-5-5-----5-5-5-5-----5-5-5-5-|
----------------------------------|----------------------------------|
------5-5-5-5-----5-5-5-5-5-5-5-5-|--4-4-4-4-----4-4-4-4-----4-4-4-4-|
------7-7-7-7-----7-7-7-7-7-7-7-7-|--7-7-7-7-----7-7-7-7-----7-7-7-7-|
----------------------------------|----------------------------------|
----------------------------------|----------------------------------|


  S S S S S S S S S S S S S S S S  
------5-5-5-5-----5-5-5-5-5-5-5-5-|
----------------------------------|
------4-4-4-4-----4-4-4-4-4-4-4-4-|
------7-7-7-7-----7-7-7-7-7-7-7-7-|
----------------------------------|
----------------------------------|


   S  S  S  S S S  S  S  S  S S S  S  S  S  S  
----------------------------------------------|
----------------------------------------------|
---9--9--9--9------9--9--9--9------9--9--9--9-|
--10-10-10-10-----10-10-10-10-----10-10-10-10-|
---7--7--7--7------7--7--7--7------7--7--7--7-|
----------------------------------------------|


  S S S S S S S S S S S S S S S S  
----------------------------------|
----------------------------------|
------9-9-9-9-----9-9-9-9-9-9-9-9-|
----------------------------------|
------7-7-7-7-----7-7-7-7-7-7-7-7-|
----------------------------------|


   S  S  S  S S S  S  S  S  S S S  S  S  S  S    S S S S S S S S E  E  E  E   
---8--8--8--8------8--8--8--8------8--8--8--8-|------------------------------|
----------------------------------------------|------------------------------|
---9--9--9--9------9--9--9--9------9--9--9--9-|------9-9-9-9-----------------|
--10-10-10-10-----10-10-10-10-----10-10-10-10-|------------------------------|
---7--7--7--7------7--7--7--7------7--7--7--7-|------7-7-7-7-----------------|
----------------------------------------------|------------------------------|


   W                   H         H            W                 
--------------------|---------------------|--------------------|
--10----------------|--L--------13--------|--12----------------|
--------------------|---------------------|--------------------|
---7----------------|--L--------10--------|---9----------------|
--------------------|---------------------|--------------------|
--------------------|---------------------|--------------------|


   H         H            W                   W                 
----------------------|--------------------|-------------------|
----------------------|--10----------------|--L----------------|
--12--------10--------|--------------------|-------------------|
----------------------|---7----------------|--L----------------|
--10---------8--------|--------------------|-------------------|
----------------------|--------------------|-------------------|


  W                   W                    W                 
--8----------------|--L----------------|--------------------|
--L----------------|--L----------------|--10----------------|
-------------------|-------------------|--------------------|
--L----------------|--L----------------|---7----------------|
-------------------|-------------------|--------------------|
-------------------|-------------------|--------------------|


  H         H            W                    H         H         
---------------------|--------------------|----------------------|
--L--------13--------|--12----------------|----------------------|
---------------------|--------------------|--12--------10--------|
--L--------10--------|---9----------------|----------------------|
---------------------|--------------------|--10---------8--------|
---------------------|--------------------|----------------------|


   W                   W                   W                 
--------------------|-------------------|--8----------------|
--10----------------|--L----------------|--L----------------|
--------------------|-------------------|-------------------|
---7----------------|--L----------------|--L----------------|
--------------------|-------------------|-------------------|
--------------------|-------------------|-------------------|


  W                   W                   W                 
--L----------------|-------------------|-------------------|
--L----------------|-------------------|-------------------|
-------------------|-------------------|-------------------|
--L----------------|--7----------------|--L----------------|
-------------------|-------------------|-------------------|
-------------------|-------------------|-------------------|


  E.  E.  S S E.  E.  E     E  E  E  E  E  E  E  E         
-------------------------|--------------------------|-----|
-------------------------|--------------------------|-----|
-------------------------|--------------------------|-----|
--7---7---x-x-7---7---7--|--L-----------------------|-----|
--7---7---x-x-7---7---7--|--L-----------------------|-----|
--7---7---x-x-7---7---7--|--L-----------------------|-----|


  H        S S S S S S S S    E.  E.  S S E  E  E  E                       
---------------------------|--------------------------|-------------------|
-----------x-x-x-x---x-x-x-|--------------------------|-------------------|
-----------x-x-x-x---x-x-x-|--------------------------|-------------------|
-----------x-x-x-x---x-x-x-|--0---0---x-x-------------|-------------------|
-----------x-x-x-x---x-x-x-|--0---0---x-x-------------|-------------------|
---------------------------|--0---0---x-x-------------|-------------------|


  E.  E.  S S E.  E.  E     E   E.   E.   E.   E.   E   
-------------------------|-----------------------------|
-------------------------|-----------------------------|
-------------------------|-----------------------------|
--7---7---x-x-7---7---7--|--L--15---15---14---14---14--|
--7---7---x-x-7---7---7--|--L--------------------------|
--7---7---x-x-7---7---7--|--L--12---12---10---10---10--|


   E.   E.   E   E.   E.   E     E.  E.  E  S S S S S S S S  
------------------------------|-----------------------------|
------------------------------|-------------x-x-x-x---x-x-x-|
------------------------------|-------------x-x-x-x---x-x-x-|
--10---10---10--10---10---10--|--9---9---9--x-x-x-x---x-x-x-|
------------------------------|-------------x-x-x-x---x-x-x-|
---7----7----7---7----7----7--|--5---5---5------------------|


  E.  E.  S S  E.   E.  S S     E.   E.   E   S  S  S  S  S  S  S  S  
----------------------------|----------------------------------------|
----------------------------|----------------------------------------|
----------------------------|----------------------------------------|
--0---0---x-x-14---14---x-x-|--14---14---14--10-10-10-10-10-10-10-10-|
--0---0---x-x-----------x-x-|----------------------------------------|
--0---0---x-x-10---10---x-x-|--10---10---10---7--7--7--7--7--7--7--7-|


  E.  E.  S S E.  E.  E     E  E  E  E  E  E  E  E         
-------------------------|--------------------------|-----|
-------------------------|--------------------------|-----|
-------------------------|--------------------------|-----|
--7---7---x-x-7---7---7--|--L-----------------------|-----|
--7---7---x-x-7---7---7--|--L-----------------------|-----|
--7---7---x-x-7---7---7--|--L-----------------------|-----|


                                                    NH                      
  H        S S S S S S S S    E.  E.  S S E.  E.    E     W                 
---------------------------|---------------------------|-------------------|
-----------x-x-x-x---x-x-x-|---------------------------|-------------------|
-----------x-x-x-x---x-x-x-|---------------------------|-------------------|
-----------x-x-x-x---x-x-x-|--7---7---x-x-7---7---<>3--|--L----------------|
-----------x-x-x-x---x-x-x-|--7---7---x-x-7---7--------|-------------------|
---------------------------|--7---7---x-x-7---7--------|-------------------|


  W                   H        S S S S S S S S                      
-------------------|---------------------------|----|----|----|----|
-------------------|-----------x-x-x-x---x-x-x-|----|----|----|----|
-------------------|-----------x-x-x-x---x-x-x-|----|----|----|----|
--L----------------|--L--------x-x-x-x---x-x-x-|----|----|----|----|
-------------------|-----------x-x-x-x---x-x-x-|----|----|----|----|
-------------------|---------------------------|----|----|----|----|


   W                   W                   W                 
--------------------|-------------------|-------------------|
--------------------|-------------------|-------------------|
--------------------|-------------------|-------------------|
--10----------------|--L----------------|--9----------------|
--------------------|-------------------|-------------------|
--------------------|-------------------|-------------------|


  W                    W                   H         H         
-------------------|--------------------|---------------------|
-------------------|--10----------------|--L--------13--------|
-------------------|--------------------|---------------------|
--L----------------|---7----------------|--L--------10--------|
-------------------|--------------------|---------------------|
-------------------|--------------------|---------------------|


   W                    H         H            W                 
--------------------|----------------------|--------------------|
--12----------------|----------------------|--10----------------|
--------------------|--12--------10--------|--------------------|
---9----------------|----------------------|---7----------------|
--------------------|--10---------8--------|--------------------|
--------------------|----------------------|--------------------|


  W                   W                   W                 
-------------------|--8----------------|--L----------------|
--L----------------|--L----------------|--L----------------|
-------------------|-------------------|-------------------|
--L----------------|--L----------------|--L----------------|
-------------------|-------------------|-------------------|
-------------------|-------------------|-------------------|


   W                   H         H            W                 
--------------------|---------------------|--------------------|
--10----------------|--L--------13--------|--12----------------|
--------------------|---------------------|--------------------|
---7----------------|--L--------10--------|---9----------------|
--------------------|---------------------|--------------------|
--------------------|---------------------|--------------------|


   H         H            W                   W                 
----------------------|--------------------|-------------------|
----------------------|--10----------------|--L----------------|
--12--------10--------|--------------------|-------------------|
----------------------|---7----------------|--L----------------|
--10---------8--------|--------------------|-------------------|
----------------------|--------------------|-------------------|


  W                   W                    W                 
--8----------------|--L----------------|--------------------|
--L----------------|--L----------------|--10----------------|
-------------------|-------------------|--------------------|
--L----------------|--L----------------|---7----------------|
-------------------|-------------------|--------------------|
-------------------|-------------------|--------------------|


  H         H            W                    H         H         
---------------------|--------------------|----------------------|
--L--------13--------|--12----------------|----------------------|
---------------------|--------------------|--12--------10--------|
--L--------10--------|---9----------------|----------------------|
---------------------|--------------------|--10---------8--------|
---------------------|--------------------|----------------------|


   W                   W                   W                 
--------------------|-------------------|-------------------|
--10----------------|--L----------------|--L----------------|
--------------------|-------------------|-------------------|
--------------------|-------------------|-------------------|
---7----------------|--L----------------|--L----------------|
--------------------|-------------------|-------------------|


  W                                      
-------------------|-------------------||
--L----------------|-------------------||
-------------------|-------------------||
-------------------|-------------------||
--L----------------|-------------------||
-------------------|-------------------||


Duration Legend
---------------
W - whole
H - half
Q - quarter
E - 8th
S - 16th
T - 32nd
X - 64th
. - note dotted
|-n-|  - n-tuplets


Tablature Legend
----------------
L - tied note
x - dead note
g - grace note
(n) - ghost note
> - accentuded note
NH - natural harmonic
AH - artificial harmonic
TH - tapped harmonic
SH - semi harmonic
PH - pitch harmonic
h - hammer on
p - pull off
b - bend
br - bendRelease
pb - preBend
pbr - preBendRelease
brb - bendReleaseBend
\n/ - tremolo bar dip
\n - tremolo bar dive
-/n - tremolo bar Release up
/n\ - tremolo bar inverted dip
/n - tremolo bar return
-\n - tremolo bar Release down
S - shift slide
s - legato slide
/ -  slide into from below or out of upwards
\ -  slide into from above or out of downwards
~ - vibrato
W - wide vibrato
tr - trill
TP - tremolo picking
T - tapping
S - slap
P - pop
< - fade in
^ - brush up
v - brush down


That is all! I hope this helped, and be sure to check out my cover if you are
having problems with the tab. Thanks, oh and one last thing... ROCK OUT!!!!
Tap to rate this tab
# A B C D E F G H I J K L M N O P Q R S T U V W X Y Z