Song name
# A B C D E F G H I J K L M N O P Q R S T U V W X Y Z

Bring Me The Horizon - And The Snakes Start To Sing tab

And The Snakes start to sing Tab
This is my way not the actual recording, if its the tab is inaccurate to the video lemme 
know, also the solo is originally in drop c, but I kept drop d tuning  obviously hope 
you enjoy!  Lemme know if you have any questions!

E|---------------------------------------------------------------|
B|---------------------------------------------------------------|
G|---------------------------------------------------------------|
D|---------------------------------------------------------------|
A|-------10---10-------------10-----10----10----10----10-------10|
D|---8-------------11-----8-------8----------11------8-----8-----|
-(Repeated Twice)

E|---------------------------------------------------------------|
B|---------------------------------------------------------------|
G|---------------------------------------------------------------|
D|--------10-----------10-----------10-----------10------------10|
A|---8------------8------------8------------8------------8-------|
D|---------------------------------------------------------------|
(Repeated 3 Times


E|----------------------------------11-----------13/15---15------|
B|----------------------------------------13---------------------|
G|12b---10-(10)---12b---10-(10)-----------------------------12-12|
D|---------------------------------------------------------------|
A|---------------------------------------------------------------|
D|---------------------------------------------------------------|


E|---------------------------------------------------------------|
B|---------------------------------------------------------------|
G|---12b---10-(10)---12b---10-(10)---5--5/6--5-------------------|
D|---------------------------------------------------------------|
A|---------------------------------------------------------------|
D|---------------------------------------------------------------|
repeat last two sections)

E|---------------------------------------------------------------|
B|---------------------------------------------------------------|
G|---------------------------------------------------------------|
D|--------10-----------10-----------10-----------10------------10|
A|---8------------8------------8------------8--------------8-----|
D|---------------------------------------------------------------|
(Repeat 3 times)


E|---------------------------------------------------------------|
B|---------------------------------------------------------------|
G|---------------------------------------------------------------|
D|---3--3--3---6--6---6--6---10--10---10--10---6--6--6---6--6----|
A|---3--3--3---6--6---6--6---10--10---10--10---6--6--6---6--6----|
D|---3--3--3---6--6---6--6---10--10---10--10---6--6--6---6--6----|
(repeat 5 times)

|------------------------------------------------------------------|
B|-----------------------------------------------------------------|
G|-----------------------------------------------------------------|
D|--------10-----------10-----------10-----------10------------10--|
A|---8------------8------------8------------8--------------8-------|
D|-----------------------------------------------------------------|
Repeat 3 Times



E|----------------------------------11-----------13/15---15------|
B|----------------------------------------13---------------------|
G|12b---10-(10)---12b---10-(10)-----------------------------12-12|
D|---------------------------------------------------------------|
A|---------------------------------------------------------------|
D|---------------------------------------------------------------|


E|---------------------------------------------------------------|
B|---------------------------------------------------------------|
G|---12b---10-(10)---12b---10-(10)---5--5/6--5-------------------|
D|---------------------------------------------------------------|
A|---------------------------------------------------------------|
D|---------------------------------------------------------------|
repeat last two sections)

E|---------------------------------------------------------------|
B|---------------------------------------------------------------|
G|---------------------------------------------------------------|
D|---3--3--3---6--6---6--6---10--10---10--10---6--6--6---6--6----|
A|---3--3--3---6--6---6--6---10--10---10--10---6--6--6---6--6----|
D|---3--3--3---6--6---6--6---10--10---10--10---6--6--6---6--6----|
(repeat 5 tines)
Tap to rate this tab
 
# A B C D E F G H I J K L M N O P Q R S T U V W X Y Z