Song name
# A B C D E F G H I J K L M N O P Q R S T U V W X Y Z

Bring Me The Horizon - Can You Feel My Heart tab

Drop D-Tuning

There is a pretty nice tab online, i just added some small corrections.



Synth Intro

e|-7-7-7-10-8-7-7---7-10-8-7-7-7-10-8-7-7---7---7---7--7|
B|----------------5-----------------------5---5---5-----|
G|------------------------------------------------------|
D|------------------------------------------------------|
A|------------------------------------------------------|
D|------------------------------------------------------|

Guitar Chords
           
e|-----------------------------------------|
B|-----------------------------------------|
G|-5---2-------------2---5-----------------|
D|-5---2---2-----5---2---5---2-------------|
A|-3---0---2-----5---0---3---2-------------|
D|---------2-----5-----------2-------------|
           ^
         hold it pretty long


Riff
e|---------------------------------------------|
B|---------------------------------------------|
G|-----------------------4---------------------|
D|-------------------5----------7p5------------|
A|--5/7---------5--7------------------7--------|
D|---------------------------------------------|

e|---------------------------------------------|
B|---5--5--5--5--------------------------------|
G|---------------4---5(hold)-------------------|
D|---------------------------------------------|
A|---------------------------------------------|
D|---------------------------------------------|


e|---------------------------------------------|
B|---------------------------------------------|
G|--------4------------------------------------|
D|--5--7-----7--5------------------------------|
A|------------------7(hold)--------------------|
D|---------------------------------------------|


Synth Bridge
e|----------7--------------7---------------------|
B|--8-----7----5-7-8-----7-----------------------|
G|-----------------------------------------------| 
D|-----------------------------------------------|
A|-----------------------------------------------|
E|-----------------------------------------------|

Chorus

e|-----------------------------------------|
B|-----------------------------------------|
G|-5---2-------------2---5-----------------|
D|-5---2---2-----5---2---5---2-------------|
A|-3---0---2-----5---0---3---2-------------|
D|---------2-----5-----------2-------------|
           ^
         hold it pretty long


All thanks to pakopako for his great tab!
Tap to rate this tab
# A B C D E F G H I J K L M N O P Q R S T U V W X Y Z