Song name
# A B C D E F G H I J K L M N O P Q R S T U V W X Y Z

Bring Me The Horizon - Go To Hell For Heavens Sake tab

Drop C

D||-------|------------------------|------------------------|
A||-------|------------------------|------------------------|
F||-------|------------------------|------------------------|
C||-------|--7---7---7--7---7---7--|--7---7---7--3---3---3--|
G||-------|--7---7---7--7---7---7--|--7---7---7--3---3---3--|
C||-------|--7---7---7--7---7---7--|--7---7---7--3---3---3--|


------------------------|------------------------|------------------------|
------------------------|------------------------|-------------3---3---3--|
------------------------|------------------------|-------------2---2---2--|
--5---5---5--5---5---5--|--5---5---5--5---5---5--|--0---0---0--0---0---0--|
--5---5---5--5---5---5--|--5---5---5--5---5---5--|--0---0---0--0---0---0--|
--5---5---5--5---5---5--|--5---5---5--5---5---5--|--0---0---0--0---0---0--|

   
------------------------|------------------------|------------------------|
-------------5---5---5--|------------------------|------------------------|
-------------4---4---4--|------------------------|------------------------|
--0---0---0--2---2---2--|--3---3---3--3---3---3--|--3---3---3--3---3---3--|
--0---0---0--2---2---2--|--3---3---3--3---3---3--|--3---3---3--3---3---3--|
--0---0---0--2---2---2--|--3---3---3--3---3---3--|--3---3---3--3---3---3--|

   
------------------------|------------------------|------------------------|
------------------------|------------------------|------------------------|
------------------------|------------------------|------------------------|
--7---7---7--7---7---7--|--7---7---7--3---3---3--|--5---5---5--5---5---5--|
--7---7---7--7---7---7--|--7---7---7--3---3---3--|--5---5---5--5---5---5--|
--7---7---7--7---7---7--|--7---7---7--3---3---3--|--5---5---5--5---5---5--|


------------------------|------------------------|------------------------|
------------------------|-------------3---3---3--|-------------5---5---5--|
------------------------|-------------2---2---2--|-------------4---4---4--|
--5---5---5--5---5---5--|--0---0---0--0---0---0--|--0---0---0--2---2---2--|
--5---5---5--5---5---5--|--0---0---0--0---0---0--|--0---0---0--2---2---2--|
--5---5---5--5---5---5--|--0---0---0--0---0---0--|--0---0---0--2---2---2--|

  
------------------------|------------------------|
------------------------|------------------------|
------------------------|------------------------|
--3---3---3--3---3---3--|--3---3---3--3---3---3--|
--3---3---3--3---3---3--|--3---3---3--3---3---3--|
--3---3---3--3---3---3--|--3---3---3--3---3---3--|

  
----------------------------------|----------------------------------|
----------------------------------|----------------------------------|
----------------------------------|----------------------------------|
----------------------------------|----------------------------------|
----------------------------------|----------------------------------|
--7-7-7-7-7-7-7-7-7-7-7-7-7-7-7-7-|--7-7-7-7-7-7-7-7-7-7-7-7-7-7-7-7-|


  
----------------------------------|----------------------------------|
----------------------------------|----------------------------------|
----------------------------------|----------------------------------|
----------------------------------|----------------------------------|
----------------------------------|----------------------------------|
--5-5-5-5-5-5-5-5-5-5-5-5-5-5-5-5-|--5-5-5-5-5-5-5-5-5-5-5-5-5-5-5-5-|

----------------------------------|
----------------------------------|
----------------------------------|
----------------------------------|
----------------------------------|
--3-3-3-3-3-3-3-3-3-3-3-3-3-3-3-3-|

---------------------------------------------|-------------------|
---------------------------------------------|-------------------|
---------------------------------------------|-------------------|
---------------------------------------------|-------------------|
---------------------------------------------|-------------------|
--3S-14-14-14-14-14-14-14-14-14-14-14-14\----|-------------------|


---------------------------------------------|
---------------------------------------------|
---------------------------------------------|
---------------------------------------------|
---------------------------------------------|
--3S-14-14-14-14-14-14-14-14-14-14-14-14\----|


----------------------------------|----------------------------------|
----------------------------------|----------------------------------|
----------------------------------|----------------------------------|
----------------------------------|----------------------------------|
----------------------------------|----------------------------------|
--7-7-7-7-7-7-7-7-7-7-7-7-7-7-7-7-|--7-7-7-7-7-7-7-7-7-7-7-7-7-7-7-7-|


----------------------------------|----------------------------------|
----------------------------------|----------------------------------|
----------------------------------|----------------------------------|
----------------------------------|----------------------------------|
----------------------------------|----------------------------------|
--5-5-5-5-5-5-5-5-5-5-5-5-5-5-5-5-|--5-5-5-5-5-5-5-5-5-5-5-5-5-5-5-5-|


----------------------------------|
----------------------------------|
----------------------------------|
----------------------------------|
----------------------------------|
--3-3-3-3-3-3-3-3-3-3-3-3-3-3-3-3-|



---------------------------------------------|
---------------------------------------------|
---------------------------------------------|
---------------------------------------------|
---------------------------------------------|
--3S-14-14-14-14-14-14-14-14-14-14-14-14\----|


----------------------------------|
----------------------------------|
----------------------------------|
----------------------------------|
----------------------------------|
--3-3-3-3-3-3-3-3-3-3-3-3-3-3-3-3-|

      
---------------------------------------------|
---------------------------------------------|
---------------------------------------------|
---------------------------------------------|
---------------------------------------------|
--3S-14-14-14-14-14-14-14-14-14-14-14-14\----|


----------17--15--17--15----------|----------17--15--17--15----------|
--18--17------------------18--17--|--18--17------------------18--17--|
----------------------------------|----------------------------------|
----------------------------------|----------------------------------|
----------------------------------|----------------------------------|
----------------------------------|----------------------------------|


--------------------------------------|-------------------------------------|
--18--17--(18)--17--18--17--(18)--17--|--18--17--(18)--17--18--17--(18)--17-|
--------------------------------------|-------------------------------------|
--------------------------------------|-------------------------------------|
--------------------------------------|-------------------------------------|
--------------------------------------|-------------------------------------|


------------------------|------------------------|------------------------|
------------------------|------------------------|------------------------|
------------------------|------------------------|------------------------|
--7---7---7--7---7---7--|--7---7---7--3---3---3--|--5---5---5--5---5---5--|
--7---7---7--7---7---7--|--7---7---7--3---3---3--|--5---5---5--5---5---5--|
--7---7---7--7---7---7--|--7---7---7--3---3---3--|--5---5---5--5---5---5--|



------------------------|------------------------|------------------------|
------------------------|-------------3---3---3--|-------------5---5---5--|
------------------------|-------------2---2---2--|-------------4---4---4--|
--5---5---5--5---5---5--|--0---0---0--0---0---0--|--0---0---0--2---2---2--|
--5---5---5--5---5---5--|--0---0---0--0---0---0--|--0---0---0--2---2---2--|
--5---5---5--5---5---5--|--0---0---0--0---0---0--|--0---0---0--2---2---2--|


--------------------------|--------------------------|----------------------|
--------------------------|--------------------------|----------------------|
--------------------------|--------------------------|----------------------|
--3--3--3--3--3--3--3--3--|--3--3--3--3--3--3--3--3--|--7---7---7--7---7---7|
--3--3--3--3--3--3--3--3--|--3--3--3--3--3--3--3--3--|--7---7---7--7---7---7|
--3--3--3--3--3--3--3--3--|--3--3--3--3--3--3--3--3--|--7---7---7--7---7---7|


------------------------|------------------------|------------------------|
------------------------|------------------------|------------------------|
------------------------|------------------------|------------------------|
--7---7---7--3---3---3--|--5---5---5--5---5---5--|--5---5---5--5---5---5--|
--7---7---7--3---3---3--|--5---5---5--5---5---5--|--5---5---5--5---5---5--|
--7---7---7--3---3---3--|--5---5---5--5---5---5--|--5---5---5--5---5---5--|


------------------------|------------------------|-------------------|
-------------3---3---3--|-------------5---5---5--|-------------------|
-------------2---2---2--|-------------4---4---4--|-------------------|
--0---0---0--0---0---0--|--0---0---0--2---2---2--|--3----------------|
--0---0---0--0---0---0--|--0---0---0--2---2---2--|--3----------------|
--0---0---0--0---0---0--|--0---0---0--2---2---2--|--3----------------|

                                                         
-------------------|-------------------|-------------------|----------------|
-------------------|-------------------|-------------------|----------------|
-------------------|-------------------|-------------------|----------------|
--L----------------|-------------------|-------------------|----------------|
--L----------------|--0----------------|--L----------------|----------------|
--L----------------|-------------------|-------------------|----------------|


-------------------|-------------------|-------------------|
-------------------|-------------------|-------------------|
-------------------|-------------------|-------------------|
-------------------|-------------------|-------------------|
-------------------|-------------------|-------------------|
-------------------|-------------------|-------------------|


----------------------------------|----------------------------------|
----------------------------------|----------------------------------|
----------------------------------|----------------------------------|
----------------------------------|----------------------------------|
----------------------------------|----------------------------------|
--7-7-7-7-----7-7-7-7-----7-7-7-7-|------7-7-7-7-----7-7-7-7-7-7-7-7-|


----------------------------------|----------------------------------|
----------------------------------|----------------------------------|
----------------------------------|----------------------------------|
----------------------------------|----------------------------------|
----------------------------------|----------------------------------|
--5-5-5-5-----5-5-5-5-----5-5-5-5-|------5-5-5-5-----5-5-5-5-5-5-5-5-|


  
----------------------------------|
----------------------------------|
----------------------------------|
----------------------------------|
----------------------------------|
--3-3-3-3-----3-3-3-3-----3-3-3-3-|

  
----------------------------------------------|
----------------------------------------------|
----------------------------------------------|
----------------------------------------------|
----------------------------------------------|
------14-14-14-14-----14-14-14-14-14-14-14-14-|


----------------------------------|--------------------------------------|
----------------------------------|----------------------x-x-x-x---x-x-x-|
----------------------------------|----------------------x-x-x-x---x-x-x-|
----------------------------------|----------------------x-x-x-x---x-x-x-|
----------------------------------|----------------------x-x-x-x---x-x-x-|
--3-3-3-3-----3-3-3-3-----3-3-3-3-|------14-14-14-14---------------------|


------------------------|------------------------|------------------------|
------------------------|------------------------|------------------------|
------------------------|------------------------|------------------------|
--7---7---7--7---7---7--|--7---7---7--3---3---3--|--5---5---5--5---5---5--|
--7---7---7--7---7---7--|--7---7---7--3---3---3--|--5---5---5--5---5---5--|
--7---7---7--7---7---7--|--7---7---7--3---3---3--|--5---5---5--5---5---5--|


------------------------|------------------------|------------------------|
------------------------|-------------3---3---3--|-------------5---5---5--|
------------------------|-------------2---2---2--|-------------4---4---4--|
--5---5---5--5---5---5--|--0---0---0--0---0---0--|--0---0---0--2---2---2--|
--5---5---5--5---5---5--|--0---0---0--0---0---0--|--0---0---0--2---2---2--|
--5---5---5--5---5---5--|--0---0---0--0---0---0--|--0---0---0--2---2---2--|

--------------------------|--------------------------|----------------------|
--------------------------|--------------------------|----------------------|
--------------------------|--------------------------|----------------------|
--3--3--3--3--3--3--3--3--|--3--3--3--3--3--3--3--3--|--7---7---7--7---7---7|
--3--3--3--3--3--3--3--3--|--3--3--3--3--3--3--3--3--|--7---7---7--7---7---7|
--3--3--3--3--3--3--3--3--|--3--3--3--3--3--3--3--3--|--7---7---7--7---7---7|

   
------------------------|------------------------|------------------------|
------------------------|------------------------|------------------------|
------------------------|------------------------|------------------------|
--7---7---7--3---3---3--|--5---5---5--5---5---5--|--5---5---5--5---5---5--|
--7---7---7--3---3---3--|--5---5---5--5---5---5--|--5---5---5--5---5---5--|
--7---7---7--3---3---3--|--5---5---5--5---5---5--|--5---5---5--5---5---5--|




------------------------|------------------------|--------------------------|
-------------3---3---3--|-------------5---5---5--|--------------------------|
-------------2---2---2--|-------------4---4---4--|--------------------------|
--0---0---0--0---0---0--|--0---0---0--2---2---2--|--3--3--3--3--3--3--3--3--|
--0---0---0--0---0---0--|--0---0---0--2---2---2--|--3--3--3--3--3--3--3--3--|
--0---0---0--0---0---0--|--0---0---0--2---2---2--|--3--3--3--3--3--3--3--3--|

--------------------------|
--------------------------|
--------------------------|
--3--3--3--3--3--3--3--3--|
--3--3--3--3--3--3--3--3--|
--3--3--3--3--3--3--3--3--|

Solo =

---------------------|-------------------|----------------------------------|
---------------------|-------------------|--------------17------------------|
---------------------|-------------------|------16--14----------16--14--16b-|
--<>3----------------|--L----------------|--14--------------14--------------|
--<>3----------------|--L----------------|----------------------------------|
---------------------|-------------------|----------------------------------|

------------------------|--------------------------------|
------------------------|--------------17----L\----------|
--L--L--L--L--14--------|------16--14----------------16--|
------------------------|--14--------------------14------|
------------------------|--------------------------------|
------------------------|--------------------------------|
  
------15----L\------------------------------|
----------------17-17-17-17-17b-17b-17b-17b-|
--14----------------------------------------|
--------------------------------------------|
--------------------------------------------|
--------------------------------------------|

------------------------------------------------------------------|
--17b-17b-17b-17b-17b-17b-17b-17b-17b-17b-17b-17b-17b----L--17----|
---------------------------------------------------------------16-|
------------------------------------------------------------------|
------------------------------------------------------------------|
------------------------------------------------------------------|

    
---------------------|-----------------------------------|
---------------------|--------------17-------------------|
--16b----------------|------16--14----------16--14--16b--|
---------------------|--14--------------14---------------|
---------------------|-----------------------------------|
---------------------|-----------------------------------|


------------------------|--------------------------------|
------------------------|--------------17----L\----------|
--L--L--L--L--14--------|------16--14----------------16--|
------------------------|--14--------------------14------|
------------------------|--------------------------------|
------------------------|--------------------------------|

------15----L\------------------------------|
----------------17-17-17-17-17b-17b-17b-17b-|
--14----------------------------------------|
--------------------------------------------|
--------------------------------------------|
--------------------------------------------|


------------------------------------------------------------------|
--17b-17b-17b-17b-17b-17b-17b-17b-17b-17b-17b-17b-17b----L--17----|
---------------------------------------------------------------16-|
------------------------------------------------------------------|
------------------------------------------------------------------|
------------------------------------------------------------------|


---------------------|-------------------|-----|-----|-----|-----|
---------------------|-------------------|-----|-----|-----|-----|
---------16b------------------|--L-------------|-----|-----|-----|
---------------------|-------------------|-----|-----|-----|-----|
---------------------|-------------------|-----|-----|-----|-----|
---------------------|-------------------|-----|-----|-----|-----|


-----|--------------------|----------------------|-------------------|
-----|--------------------|----------------12----|--L----------------|
-----|--12----------------|--L--------L----------|-------------------|
-----|--------------------|----------------------|-------------------|
-----|--------------------|----------------------|-------------------|
-----|--------------------|----------------------|-------------------|
  
 
-------------------|--------------------|-----------------------------|
--L----------------|--------------------|-----13---13---13---13---13--|
-------------------|--12----------------|--L--------------------------|
-------------------|--------------------|-----------------------------|
-------------------|--------------------|-----------------------------|
-------------------|--------------------|-----------------------------|


--------------------|--------------------|---------------------------|
--12----------------|--15----------------|---------------------------|
--------------------|--------------------|---------------------------|
--------------------|--------------------|---------------------------|
--------------------|--------------------|---------------------------|
--------------------|--------------------|---------------------------



|-------------------------|
|-------------------------|
|-------------------------|
|--7---7---x-x-7---7---7--|
|--7---7---x-x-7---7---7--|
|--7---7---x-x-7---7---7--|


  
--------------------------|-----|---------------------------|
--------------------------|-----|-----------x-x-x-x---x-x-x-|
--------------------------|-----|-----------x-x-x-x---x-x-x-|
--L-----------------------|-----|-----------x-x-x-x---x-x-x-|
--L-----------------------|-----|-----------x-x-x-x---x-x-x-|
--L-----------------------|-----|---------------------------|


                         
---------------------------|-------------------|-------------------|
---------------------------|-------------------|-------------------|
---------------------------|-------------------|-------------------|
--7---7---x-x-7---7---<>3--|--L----------------|--L----------------|
--7---7---x-x-7---7--------|-------------------|-------------------|
--7---7---x-x-7---7--------|-------------------|-------------------|


---------------------------|-------------------|---------------------|
-----------x-x-x-x---x-x-x-|-------------------|---------------------|
-----------x-x-x-x---x-x-x-|-------------------|---------------------|
--L--------x-x-x-x---x-x-x-|--7----------------|--L--------10--------|
-----------x-x-x-x---x-x-x-|-------------------|---------------------|
---------------------------|-------------------|---------------------|


              
-------------------|--------------------|-------------------|
-------------------|--8--------6--------|-------------------|
-------------------|--------------------|-------------------|
--9----------------|--------------------|--7----------------|
-------------------|--------------------|-------------------|
-------------------|--------------------|-------------------|

              
---------------------|-------------------|-------------------|
---------------------|-------------------|-------------------|
---------------------|-------------------|-------------------|
--L--------10--------|--9----------------|--L----------------|
---------------------|-------------------|-------------------|
---------------------|-------------------|-------------------|

------------------------|------------------------|------------------------|
------------------------|------------------------|------------------------|
------------------------|------------------------|------------------------|
--7---7---7--7---7---7--|--7---7---7--3---3---3--|--5---5---5--5---5---5--|
--7---7---7--7---7---7--|--7---7---7--3---3---3--|--5---5---5--5---5---5--|
--7---7---7--7---7---7--|--7---7---7--3---3---3--|--5---5---5--5---5---5--|


------------------------|------------------------|------------------------|
------------------------|-------------3---3---3--|-------------5---5---5--|
------------------------|-------------2---2---2--|-------------4---4---4--|
--5---5---5--5---5---5--|--0---0---0--0---0---0--|--0---0---0--2---2---2--|
--5---5---5--5---5---5--|--0---0---0--0---0---0--|--0---0---0--2---2---2--|
--5---5---5--5---5---5--|--0---0---0--0---0---0--|--0---0---0--2---2---2--|


  
------------------------|------------------------|------------------------|
------------------------|------------------------|------------------------|
------------------------|------------------------|------------------------|
--3---3---3--3---3---3--|--3---3---3--3---3---3--|--7---7---7--7---7---7--|
--3---3---3--3---3---3--|--3---3---3--3---3---3--|--7---7---7--7---7---7--|
--3---3---3--3---3---3--|--3---3---3--3---3---3--|--7---7---7--7---7---7--|


  
------------------------|------------------------|------------------------|
------------------------|------------------------|------------------------|
------------------------|------------------------|------------------------|
--7---7---7--3---3---3--|--5---5---5--5---5---5--|--5---5---5--5---5---5--|
--7---7---7--3---3---3--|--5---5---5--5---5---5--|--5---5---5--5---5---5--|
--7---7---7--3---3---3--|--5---5---5--5---5---5--|--5---5---5--5---5---5--|


   
------------------------|------------------------|------------------------|
-------------3---3---3--|-------------5---5---5--|------------------------|
-------------2---2---2--|-------------4---4---4--|------------------------|
--0---0---0--0---0---0--|--0---0---0--2---2---2--|--3---3---3--3---3---3--|
--0---0---0--0---0---0--|--0---0---0--2---2---2--|--3---3---3--3---3---3--|
--0---0---0--0---0---0--|--0---0---0--2---2---2--|--3---3---3--3---3---3--|


------------------------|--------------------------|-----------------------|
------------------------|--------------------------|-----------------------|
------------------------|--------------------------|-----------------------|
--3---3---3--3---3---3--|--7--7--7--7--7--7--7--7--|--7--7--7--7--3--3--33|
--3---3---3--3---3---3--|--7--7--7--7--7--7--7--7--|--7--7--7--7--3--3--33|
--3---3---3--3---3---3--|--7--7--7--7--7--7--7--7--|--7--7--7--7--3--3--33|

--------------------------|--------------------------|-------------------|
--------------------------|--------------------------|-------------------|
--------------------------|--------------------------|-------------------|
--5--5--5--5--5--5--5--5--|--5--5--5--5--5--5--5--5--|--0----------------|
--5--5--5--5--5--5--5--5--|--5--5--5--5--5--5--5--5--|--0----------------|
--5--5--5--5--5--5--5--5--|--5--5--5--5--5--5--5--5--|--0----------------|


Tap to rate this tab
# A B C D E F G H I J K L M N O P Q R S T U V W X Y Z