Song name
# A B C D E F G H I J K L M N O P Q R S T U V W X Y Z

Bring Me The Horizon - Blessed With A Curse tab

Example in this video/Ejemplo en este vídeo: http://www.youtube.com/watch?v=Mx1sR-kIP78

Intro

e|-----------------------------------------------------------------|
B|-----------------------------------------------------------------|
G|--5--4--2~----5--7--12-------------------------------------------| 
D|--7--5--3~----7--9--14--8~---------------------------------------|
A|-----------------------------------------------------------------|
D|-----------------------------------------------------------------|

Solo in 3:07


e|----------------10-13-15-17^17-15p13-15\18-15~-------------------|
B|---------11-8~---------------------------------------------------|
G|---7-10----------------------------------------------------------|
D|-----------------------------------------------------------------|
A|-----------------------------------------------------------------|
D|-----------------------------------------------------------------|

e|-----------------------------------------------------------------|
B|-----------------------------------8-6-3-------------------------|
G|--------------------------------7^-------------------------------| 
D|--5-8-10^10^10^10p8-5~--333~-------------------------------------|
A|-----------------------------------------------------------------|
D|-----------------------------------------------------------------|

e|-----------------------------------------------------------------|
B|-----------------------------------------------------------------|
G|--5p3-5p3--------------------------------------------------------|
D|----------5p3-5p3------------------------------------------------|
A|------------------5p3-5p3--3p1-3p1-------------------------------|
D|-----------------------------------5p3 5p3-5~--------------------|


Riffs in 3:29
e|-----------------------------------------------------------------|
B|-----------------------------------------------------------------|
G|--7-10-12-12\15-12~----7-10-12\15-12-15-15\17-15-17-17^17p15-12~-| 
D|-----------------------------------------------------------------|
A|-----------------------------------------------------------------|
D|-----------------------------------------------------------------|

e|-------------------------------------------------------------------------|
B|-----------------------------11------------------------------------------|
G|---12-15-17-17^17p15-17~---7----10-12~--101010-88-7-8p7~--555-33-2-3p12--| 
D|-------------------------------------------------------------------------|
A|-------------------------------------------------------------------------|
D|-------------------------------------------------------------------------|

e|-----------------------------------------------------------------|
B|-----------------------------------------------------------------|
G|--10-12-14-14^14p12-14^-1010~------10-12-14-14^14p12-14^-1212----| 
D|-----------------------------------------------------------------|
A|-----------------------------------------------------------------|
D|-----------------------------------------------------------------|

e|--151515-131313-111111-101010-11p10~-----888-66-5-6p5~-----------|
B|-----------------------------------------------------------------|
G|-----------------------------------------------------------------| 
D|-----------------------------------------------------------------|
A|-----------------------------------------------------------------|
D|-----------------------------------------------------------------|
Tap to rate this tab
 
# A B C D E F G H I J K L M N O P Q R S T U V W X Y Z