Song name
# A B C D E F G H I J K L M N O P Q R S T U V W X Y Z

Bring Me The Horizon - Pray For Plagues tab

 I learned this song by ear, I'm pretty damn sure that it is perfect but yeah. I'm 
tabbing both Curtis Wards'(2nd guitar)part and Lee Malia's(1st guitar)part. Have fun. :)  

    
   Curtis Wards' part(2nd guitar)

      0:00 - 0:03
|-----------------------------------------------------------|
|-----------------------------------------------------------|
|--------------------------------------------------8h11p8---|
|--1-4-3-1------------------------------7h10p7--------------|
|--1-4-3-1-----6h9p6---5h8p5--4h7p4-------------------------|
|--1-4-3-1--0--------0---------------0-0--------0-0---------|
   * * *    *        *               * *        * *

  0:04 - 0:05
|--------------------------------------|
|--------------------------------------|
|--7---6-6-9-----------------6h8h9-----|
|---------------------8h10h11----------|
|--------------7h9h10------------------|
|----0---------------------------------|
     *

   0:06 - 0:13
|-----------------------------------------------------------|
|-----------------------------------------------------------|
|-----------------------------------------------------------| x2
|-------------------------------------------7-----6---------|
|----5h8-4-----5----8----6-------5h8-4-------------------8--|
|-00-------0-0---0----0-----0-0--------0-0-----0------0-----|
  **       * *   *    *     * *        * *     *      *

 0:14 - 0:15
|------------|
|------------|
|----7^~-----|
|------------|
|------------|
|------------|

  0:16 - 0:49
|-----------------------------------------------------------|----------- \
|-----------------------------------------------------------| ---------- \
|-----------------------------------------------------------|  --------- \
|-------------------------------------------7-----6---------|    \ both- \ x2
|----5h8-4-----5-----8-----6------5h8-4-----------------8---|    ------- \
|-00-------0-0----0-----0----0-0--------0-0----0-----0------|     ------ \
  **       * *    *     *    * *        * *    *     *             \
                                                                     \
|---------------------------------------------------------------------------|
|---------------------------------------------------------------------------|
|------7h10-6------7-----10-----8------7h10-6-----7h10p7---10h13p10--8h11p8-|
|---------------------------------------------------------------------------|
|---------------------------------------------------------------------------|
|--0-0---------0-0----0------0-----0-0--------0-0--------0----------0-------|
   * *         * *    *      *     * *        * *        *          *

   0:50 - 0:53
|-----------------------------------------------------|
|-----------------------------------------------------|
|--------------------------5^bend-------5^bend--------|
|-----------------------------------------------------|
|--5----7----8----4-----------------------------------|
|----00---00---00---00-5-4-------00-5-4--------00-00--|
     **   **   **   ** * *       ** * *        ** **

   0:54 - 0:57
|-------------------------------------------------------|
|-------------------------------------------------------|
|--------------------------5^bend-------5^bend----------|
|-------------------------------------------------------|
|--5----7----8----4----------------------------5p4------|
|----00---00---00---00-5-4-------00-5-4-----------4p3---|
     **   **   **   ** * *       ** * *

  0:58 - 1:00
|---------------|
|---------------|
|---------------|
|--1-4-5-1-1-1--|
|--1-4-5-1-1-1--|
|--1-4-5-1-1-1--|
         * * *
   1:01
|-------------|
|-------------|
|-------------|
|--0-0--0-0---|
|--0-0--0-0---|
|--0-0--0-0---|
   * *  * *

  1:02 - 1:08
|---------------------------------------------------|
|---------------------------------------------------|
|---------------------------------------------------|
|--0-0--0-0---0-00-000-000---0000000--3-1-0-4-3-1---|
|--0-0--0-0---0-00-000-000---0000000--3-1-0-4-3-1---|
|--0-0--0-0---0-00-000-000---0000000--3-1-0-4-3-1---|
   * *  * *   * ** *** ***   *******

  1:09 - 1:17
|----------------------------------------------------------------------|
|----------------------------------------------------------------------|
|----------------------------------------------------------------------|
|--0-0--0-0---0-00-000-000---0000000--3-1-0-4-3-1--0-0--0-0--11^bend---|
|--0-0--0-0---0-00-000-000---0000000--3-1-0-4-3-1--0-0--0-0------------|
|--0-0--0-0---0-00-000-000---0000000--3-1-0-4-3-1--0-0--0-0------------|
   * *  * *   * ** *** ***   *******               * *  * *

  1:18 - 1:24
|---------------------------------------------------|
|---------------------------------------------------|
|---------------------------------------------------|
|--0-0--0-0---0-00-000-000---0000000--3-1-0-4-3-1---|
|--0-0--0-0---0-00-000-000---0000000--3-1-0-4-3-1---|
|--0-0--0-0---0-00-000-000---0000000--3-1-0-4-3-1---|
   * *  * *   * ** *** ***   *******

  1:25 - 1:29
|--------------------------------------|
|--------------------------------------|
|--------------------------------------|
|--0-0--0-0---0-00-000-000---0000000---|
|--0-0--0-0---0-00-000-000---0000000---|
|--0-0--0-0---0-00-000-000---0000000---|
   * *  * *   * ** *** ***   *******

  1:31 - 1:56
|---------------------------------------------------------------|
|---------------------------------------------------------------|
|---------------------------------------------------------------| x6
|----------4---------3-------------------12---------11----------|
|------5h6-------4h5-------4h5-----11h14-------9h11-------------|
|--0-0-------0-0-------0-0-----0-0---------0-0---------11h13----|
   * *       * *       * *     * *         * *

 1:57 - 1:58
|---------|
|---------|
|---------|
|--0-00---|
|--0-00---|
|--0-00---|
   * **

  1:59 - 2:07
|---------------------------------------------------------------|
|---------------------------------------------------------------|
|---------------------------------------------------------------| x2
|----------4---------3-------------------12----------11---------|
|------5h6-------4h5-------4h5-----11h14-------9--11------------|
|--0-0-------0-0-------0-0-----0-0---------0-0----------11h13---|
   * *       * *       * *     * *         * *

  2:08 - 2:11
|--------------------------------13-16---------------------------15-17-18--|
|--------------------------12-15------------------------13h15h16-----------|
|--------------------11-14---------------------12h14h15--------------------|
|--------------10-13------------------11h13h14-----------------------------|
|--------------------------------------------------------------------------|
|-00-00-00-00--------------------------------------------------------------|
  ** ** ** **

|--17p13p10-17p13p10-16p12p9-16p12p9-------------|
|------------------------------------------------|
|------------------------------------------------|
|------------------------------------------------|
|------------------------------------------------|
|------------------------------------------------|

  2:12 - 2:24 (under the solo)
|----------------------------------------|
|----------------------------------------|
|----------------------------------------|
|----0~~--6~~------------0~~--6~~--------|
|----0~~--6~~------------0~~--6~~--6-----|
|----0~~--6~~-/18bend~~--0~~--6~~--6-----|
                                   *

  2:25 - 2:32
|-------------------------------------------------------|
|-------------------------------------------------------|
|-------------------------------------------------------|
|-----------------------------12------------------------|
|-----------12(x6)-11(x12)--------------15p14----11~~~--|
|--12(x32)-----------------------12-12--------12--------|
                                 *  *         *       

  2:33 - 2:40
|--------------------------------------------------------------------|
|--------------------------------------------------------------------|
|-----------------------------------7^-------------------------------|
|--0-3-1-0-5-0-3-1---0-3-1-0-8-0-7----0-3-1-0-5-0-3-1-0--------------|
|--0-3-1-0-5-0-3-1---0-3-1-0-8-0-7----0-3-1-0-5-0-3-1-0-5p4---8---4~-|
|--0-3-1-0---0-3-1---0-3-1-0-8-0-7----0-3-1-0---0-3-1-0-----0---0----|
   * * * *   * * *     *   *     *    * * * *   * * * *     *   *


  2:41 - 2:45
|-------------------------------------------------------|
|-------------------------------------------------------|
|--------------------------------7^---------------------|
|--0-3-1-0-5-0-3-1---0-3-1-0-8-0----0-3-1-0-5-0-0-0-0---|
|--0-3-1-0-5-0-3-1---0-3-1-0-8-0----0-3-1-0-5-0-0-0-0---|
|--0-3-1-0---0-3-1---0-3-1-0-8-0----0-3-1-0---0-0-0-0---|
   * * * *   *         *   *        * * * *   * * * *

  2:46 - 2:48
|-------------------------------------------------------------------------|
|--------------------10h13p10h13p10h13--9h12p9h12p9h12--------------------|
|--11h14p11h14p11h14-----------------------------------10h13p10h13p10h13--|
|-------------------------------------------------------------------------|
|-------------------------------------------------------------------------|
|-------------------------------------------------------------------------|


   2:49 - 2:55
|---------------------------------------------------------|
|---------------------------------------------------------|
|--------------------------------------------------8^-----|
|--0-3-1-0---0-3-1-0-8-0-0---0-3-1-0---0-3-1-0-8-0--------|
|--0-3-1-0---0-3-1-0-8-0-0---0-3-1-0---0-3-1-0-8-0--------|
|--0-3-1-0---0-3-1-0-8-0-0---0-3-1-0---0-3-1-0-8-0--------|
   * * * *   * * * *   * *   * * * *   * * * *   *

   2:56 - 3:01
|------------------------------------------------|
|------------------------------------------------|
|------------------------------------------------|
|--0-3-1-0---0-3-1-0-8-0-0---0-3-1-0---0-3-1-0---|
|--0-3-1-0---0-3-1-0-8-0-0---0-3-1-0---0-3-1-0---|
|--0-3-1-0---0-3-1-0-8-0-0---0-3-1-0---0-3-1-0---|
   * * * *   * * * *   * *   * * * *   * * * *

  3:02 - 3:03
|----------------------------------------------------|
|----------------------------------------------------|
|------------------------------------------8h11p8----|
|-------------------------------7h10p7---------------|
|-----6h9p6----5h8p5--4h7p4--------------------------|
|--0--------0---------------0-0---------0-0----------|
   *        *               * *         * *

   3:04 - 3:06
|-----------------------------------------|
|-----------------------------------------|
|---7^--6^-6-9------------------6h8h9-----|
|-----------------------8h10h11-----------|
|---------------7h9h10--------------------|
|-----0-----------------------------------|
      *

   3:07 - 3:14
|-----------------------------------------------------------|
|-----------------------------------------------------------|
|-----------------------------------------------------------| x2
|------------------------------------------7-----6----------|
|----5h8-4----5----8----6------5h8-4------------------8-----|
|--00------00----0----0----0-0-------0-0------0-----0-------|
   **      **    *    *    * *       * *      *     *

   3:15 - 3:23
|--------------------------------------------------------------------|
|--------------------------------------------------------------------|
|--------------------------------------------------------------------| x2
|--------------------------------------------------------------------|
|------5h8-4-----5-----8-----6------5h8-4-----5h8p5---8h11p8---6h9p6-|
|--0-0-------0-0----0-----0-----00--------0-0-------0--------0-------|
   * *       * *    *     *     **        * *       *        *

   3:24 - 3:33
|---------------------------------------|
|---------------------------------------|
|---------------------------------------|
|--0~~---------0~~----------------------|
|--0~~---------0~~----------------------|
|--0~~---------0~~--------3-1-0-4-3-1---|


  3:34 - 3:37
|-------------------------------------------------|
|-------------------------------------------------|
|-------------------------------------------------|
|--0--------------------6-----------3-1-0-4-3-1---|
|--0-----5h8-4-----5h8--------5h8---3-1-0-4-3-1---|
|--0-0-0-------0-0--------0-0-------3-1-0-4-3-1---|
     * *       * *        * *     

   3:38 - 3:57
|------------------------------------------------------------------|
|------------------------------------------------------------------|
|-----------------------------------------8-7-5--------------------|
|--0--------------------6-----------------------8-7-5--------------|
|--0-----5h8-4-----5h8--------5h8---------------------8-7-5--6-5-3-|
|--0-0-0-------0-0--------0-0-----0-0------------------------------|/
     * *       * *        * *     * *                              /
                                                                  /
|---------------------------------------------------------------- \        
|----------------------------------------------------------------- \       
|----------------------------------------------------------/ both- \ x2
|--0--------------------6--------------3-1-0-4-3-1----------------- \     
|--0-----5h8-4-----5h8--------5h8------3-1-0-4-3-1----------------- \    
|--0-0-0-------0-0--------0-0-----0-0--3-1-0-4-3-1----------------- \
     * *       * *        * *     * *

  4:00 - 4:14
|---------------------------------------------------------|
|---------------------------------------------------------|
|---------------------------------------------------8^----| x2
|--0-3-1-0---0-3-1-0-8-0-0---0-3-1-0---0-3-1-0-8-0--------|
|--0-3-1-0---0-3-1-0-8-0-0---0-3-1-0---0-3-1-0-8-0--------|
|--0-3-1-0---0-3-1-0-8-0-0---0-3-1-0---0-3-1-0-8-0--------|
   * * * *   * * * *   * *   * * * *   * * * *   *

  4:15 - 4:16
|------------|
|------------|
|------------|
|--0-3-1-0---|
|--0-3-1-0---|
|--0-3-1-0---|
   * * * *

Lee Malia's part(1st guitar)

     0:00 - 0:03
|-----------------------------------------------------------|
|-----------------------------------------------------------|
|--------------------------------------------------8h11p8---|
|--1-4-3-1------------------------------7h10p7--------------|
|--1-4-3-1-----6h9p6---5h8p5--4h7p4-------------------------|
|--1-4-3-1--0--------0---------------0-0--------0-0---------|
   * * *    *        *               * *        * *
|-----------------------|-------------------------|
|-----------------------|-------------------------|
|----------------6h8h9--|------7^\----------------|
|--------8h10h11--------|-0~~-------0~~-----------|
|--7h8h9----------------|-0~~-------0~~---0-0-0-0-|
|-----------------------|-0~~-------0~~---0-0-0-0-|
                                          * * * *

 0:16 - 0:49
|-----------------------------------------------------------|
|-----------------------------------------------------------| 
|-----------------------------------------------------------|  
|-------------------------------------------7-----6---------| x2  
|----5h8-4-----5-----8-----6------5h8-4-----------------8---|   
|-00-------0-0----0-----0----0-0--------0-0----0-----0------|
  **       * *    *     *    * *        * *    *     *             


|------------------------------------------------------|
|------------------------------------------------------|
|------------------------------------------------------|
|------------------------------------------------------| x2
|-00-------0-0----00---00----0-0--------0-0---00----00-|
|-00-------0-0----00---00----0-0--------0-0---00----00-|
  **       * *    **   **    * *        * *   **    **


|-----------------------------------------------------------|
|-----------------------------------------------------------| 
|-----------------------------------------------------------|  
|-------------------------------------------7-----6---------| x2  
|----5h8-4-----5-----8-----6------5h8-4-----------------8---|   
|-00-------0-0----0-----0----0-0--------0-0----0-----0------|
  **       * *    *     *    * *        * *    *     *


|--------------------------------------------------------------------|
|--------------------------------------------------------------------|
|--------------------------------------------------------------------| x2
|--------------------------------------------------------------------|
|------5h8-4-----5-----8-----6------5h8-4-----5h8p5---8h11p8---6h9p6-|
|--0-0-------0-0----0-----0-----00--------0-0-------0--------0-------|
   * *       * *    *     *     **        * *       *        * 


 0:50 - 0:53
|-----------------------------------------------------|
|-----------------------------------------------------|
|--------------------------5^bend-------5^bend--------|
|-----------------------------------------------------|
|--5----7----8----4-----------------------------------|
|----00---00---00---00-5-4-------00-5-4--------00-00--|
     **   **   **   ** * *       ** * *        ** **


0:54 - 0:57
|-------------------------------------------------------|
|-------------------------------------------------------|
|--------------------------5^bend-------5^bend----------|
|-------------------------------------------------------|
|--5----7----8----4----------------------------5p4------|
|----00---00---00---00-5-4-------00-5-4-----------4p3---|
     **   **   **   ** * *       ** * * 


 0:58 - 1:00
|---------------|
|---------------|
|---------------|
|--1-4-5-1-1-1--|
|--1-4-5-1-1-1--|
|--1-4-5-1-1-1--|
         * * * 


1:02 - 1:08
|---------------------------------------------------|
|---------------------------------------------------|
|---------------------------------------------------|
|--0-0--0-0---0-00-000-000---0000000--3-1-0-4-3-1---|
|--0-0--0-0---0-00-000-000---0000000--3-1-0-4-3-1---|
|--0-0--0-0---0-00-000-000---0000000--3-1-0-4-3-1---|
   * *  * *   * ** *** ***   *******


 1:09 - 1:17
|----------------------------------------------------------------------|
|----------------------------------------------------------------------|
|----------------------------------------------------------------------|
|--0-0--0-0---0-00-000-000---0000000--3-1-0-4-3-1--0-0--0-0------------|
|--0-0--0-0---0-00-000-000---0000000--3-1-0-4-3-1--0-0--0-0------------|
|--0-0--0-0---0-00-000-000---0000000--3-1-0-4-3-1--0-0--0-0------------|
   * *  * *   * ** *** ***   *******               * *  * *



1:18 - 1:24
|---------------------------------------------------|
|---------------------------------------------------|
|---------------------------------------------------|
|--0-0--0-0---0-00-000-000---0000000--3-1-0-4-3-1---|
|--0-0--0-0---0-00-000-000---0000000--3-1-0-4-3-1---|
|--0-0--0-0---0-00-000-000---0000000--3-1-0-4-3-1---|
   * *  * *   * ** *** ***   *******

  1:25 - 1:29
|--------------------------------------|
|--------------------------------------|
|--------------------------------------|
|--0-0--0-0---0-00-000-000---0000000---|
|--0-0--0-0---0-00-000-000---0000000---|
|--0-0--0-0---0-00-000-000---0000000---|
   * *  * *   * ** *** ***   *******


|------------------||------------------------------------------------------|
|------------------||------------------------------------------------------|
|----------------7^||------------------------------------------------------|
|------------------||----------------------------------------------------| x4
|-0~~~~~-0~-0-0-0--||--00-------0-0----00---00----0-0--------0-0---00----00|
|-0~~~~~-0~-0-0-0--||--00-------0-0----00---00----0-0--------0-0---00----00|
                       **       * *    **   **    * *        * *   **    ** 



 1:57 - 1:58
|---------|
|---------|
|---------|
|--0-00---|
|--0-00---|
|--0-00---|
   * **


 1:59 - 2:07
|---------------------------------------------------------------|
|---------------------------------------------------------------|
|---------------------------------------------------------------| x2
|----------4---------3-------------------12----------11---------|
|------5h6-------4h5-------4h5-----11h14-------9--11------------|
|--0-0-------0-0-------0-0-----0-0---------0-0----------11h13---|
   * *       * *       * *     * *         * *

  2:08 - 2:11
|--------------------------------13-16---------------------------15h17h18--|
|--------------------------12-15------------------------13h15h16-----------|
|--------------------11-14---------------------12h14h15--------------------|
|--------------10-13------------------11h13h14-----------------------------|
|--------------------------------------------------------------------------|
|-00-00-00-00--------------------------------------------------------------|
  ** ** ** **
 Solo
|------------13h17p13--------------------13h17p13---------|
|----------15--------15----------------15--------15-------|
|--------14------------14------------14------------14-----|
|------15----------------15--------15----------------15---|
|-12h17--------------------17p12h17--------------------17-|
|---------------------------------------------------------|

|------------12h16p12--------------------12h16p12---------|
|----------14--------14----------------14--------14-------|
|--------13------------13------------13------------13-----|
|------14----------------14--------14----------------14---|
|-11h16--------------------16p11h16--------------------16-|
|---------------------------------------------------------|

|------------13h17p13--------------------13h17p13---------|
|----------15--------15----------------15--------15-------|
|--------14------------14------------14------------14-----|
|------15----------------15--------15----------------15---|
|-12h17--------------------17p12h17--------------------17-|
|---------------------------------------------------------|

|------------12h16p12------------|
|----------14--------14----------|
|--------13------------13--------|
|------14----------------14------|
|-11h16--------------------16p11-|
|--------------------------------|



|--------------------|
|------10(x6)-9(x12)-|
|-7(x32)-------------|
|--------------------|
|--------------------|
|--------------------|


|--------------------------|
|--------------------------|
|--------------------------|
|--12----------------------|
|----------15p14----11~~~--|
|----12-12--------12-------|
     *  *         *     




   2:33 - 2:40
|----------------------------------------------------------------------|
|----------------------------------------------------------------------|
|-----------------------------------7^------------------7p6----10---6~-|
|--0-3-1-0-5-0-3-1---0-3-1-0-8-0-7----0-3-1-0-5-0-3-1-0----------------|
|--0-3-1-0-5-0-3-1---0-3-1-0-8-0-7----0-3-1-0-5-0-3-1-0----------------|
|--0-3-1-0---0-3-1---0-3-1-0-8-0-7----0-3-1-0---0-3-1-0------0----0----|
   * * * *   * * *     *   *     *    * * * *   * * * *      *    *


  2:41 - 2:45
|-------------------------------------------------------|
|-------------------------------------------------------|
|--------------------------------7^---------------------|
|--0-3-1-0-5-0-3-1---0-3-1-0-8-0----0-3-1-0-5-0-0-0-0---|
|--0-3-1-0-5-0-3-1---0-3-1-0-8-0----0-3-1-0-5-0-0-0-0---|
|--0-3-1-0---0-3-1---0-3-1-0-8-0----0-3-1-0---0-0-0-0---|
   * * * *   *         *   *        * * * *   * * * *

  2:46 - 2:48
|-------------------------------------------------------------------------|
|--------------------10h13p10h13p10h13--9h12p9h12p9h12--------------------|
|--11h14p11h14p11h14-----------------------------------10h13p10h13p10h13--|
|-------------------------------------------------------------------------|
|-------------------------------------------------------------------------|
|-------------------------------------------------------------------------|


   2:49 - 2:55
|---------------------------------------------------------|
|---------------------------------------------------------|
|--------------------------------------------------8^-----|
|--0-3-1-0---0-3-1-0-8-0-0---0-3-1-0---0-3-1-0-8-0--------|
|--0-3-1-0---0-3-1-0-8-0-0---0-3-1-0---0-3-1-0-8-0--------|
|--0-3-1-0---0-3-1-0-8-0-0---0-3-1-0---0-3-1-0-8-0--------|
   * * * *   * * * *   * *   * * * *   * * * *   *

   2:56 - 3:01
|------------------------------------------------|
|------------------------------------------------|
|------------------------------------------------|
|--0-3-1-0---0-3-1-0-8-0-0---0-3-1-0---0-3-1-0---|
|--0-3-1-0---0-3-1-0-8-0-0---0-3-1-0---0-3-1-0---|
|--0-3-1-0---0-3-1-0-8-0-0---0-3-1-0---0-3-1-0---|
   * * * *   * * * *   * *   * * * *   * * * *

  3:02 - 3:03
|----------------------------------------------------|
|----------------------------------------------------|
|------------------------------------------8h11p8----|
|-------------------------------7h10p7---------------|
|-----6h9p6----5h8p5--4h7p4--------------------------|
|--0--------0---------------0-0---------0-0----------|
   *        *               * *         * *


 3:02 - 3:03
|----------------------------------------------------|
|----------------------------------------------------|
|------------------------------------------8h11p8----|
|-------------------------------7h10p7---------------|
|-----6h9p6----5h8p5--4h7p4--------------------------|
|--0--------0---------------0-0---------0-0----------|
   *        *               * *         * *

   3:04 - 3:06
|-----------------------------------------|
|-----------------------------------------|
|---7^--6^-6-9------------------6h8h9-----|
|-----------------------8h10h11-----------|
|---------------7h9h10--------------------|
|-----0-----------------------------------|
      *

   3:07 - 3:14
|-----------------------------------------------------------|
|-----------------------------------------------------------|
|-----------------------------------------------------------| x2
|------------------------------------------7-----6----------|
|----5h8-4----5----8----6------5h8-4------------------8-----|
|--00------00----0----0----0-0-------0-0------0-----0-------|
   **      **    *    *    * *       * *      *     *

   3:15 - 3:23
|--------------------------------------------------------------------|
|--------------------------------------------------------------------|
|--------------------------------------------------------------------| x2
|--------------------------------------------------------------------|
|------5h8-4-----5-----8-----6------5h8-4-----5h8p5---8h11p8---6h9p6-|
|--0-0-------0-0----0-----0-----00--------0-0-------0--------0-------|
   * *       * *    *     *     **        * *       *        *

   3:24 - 3:33
|---------------------------------------|
|---------------------------------------|
|---------------------------------------|
|--0~~---------0~~----------------------|
|--0~~---------0~~----------------------|
|--0~~---------0~~--------3-1-0-4-3-1---|


  3:34 - 3:37
|-------------------------------------------------|
|-------------------------------------------------|
|-------------------------------------------------|
|--0--------------------6-----------3-1-0-4-3-1---|
|--0-----5h8-4-----5h8--------5h8---3-1-0-4-3-1---|
|--0-0-0-------0-0--------0-0-------3-1-0-4-3-1---|
     * *       * *        * *     

   3:38 - 3:57
|------------------------------------------------------------------|
|------------------------------------------------------------------|
|-----------------------------------------8-7-5--------------------|
|--0--------------------6-----------------------8-7-5--------------|
|--0-----5h8-4-----5h8--------5h8---------------------8-7-5--6-5-3-|
|--0-0-0-------0-0--------0-0-----0-0------------------------------|/
     * *       * *        * *     * *                              /
                                                                  /
|---------------------------------------------------------------- \        
|----------------------------------------------------------------- \       
|----------------------------------------------------------/ both- \ x2
|--0--------------------6--------------3-1-0-4-3-1----------------- \     
|--0-----5h8-4-----5h8--------5h8------3-1-0-4-3-1----------------- \    
|--0-0-0-------0-0--------0-0-----0-0--3-1-0-4-3-1----------------- \
     * *       * *        * *     * *

  4:00 - 4:14
|---------------------------------------------------------|
|---------------------------------------------------------|
|---------------------------------------------------8^----| x2
|--0-3-1-0---0-3-1-0-8-0-0---0-3-1-0---0-3-1-0-8-0--------|
|--0-3-1-0---0-3-1-0-8-0-0---0-3-1-0---0-3-1-0-8-0--------|
|--0-3-1-0---0-3-1-0-8-0-0---0-3-1-0---0-3-1-0-8-0--------|
   * * * *   * * * *   * *   * * * *   * * * *   *

  4:15 - 4:16
|------------|
|------------|
|------------|
|--0-3-1-0---|
|--0-3-1-0---|
|--0-3-1-0---|
   * * * *
Tap to rate this tab
# A B C D E F G H I J K L M N O P Q R S T U V W X Y Z