Song name
# A B C D E F G H I J K L M N O P Q R S T U V W X Y Z

Bring Me The Horizon - And The Snakes Start To Sing tab

I Have Done This On Standard.

0:15

E|---------------------------------------------------------------------|
B|-------1--------------4----------4-----------1-----------------------|
G|-----1-----------------5----------5--------1-------3-5-8----5--6-8---|
D|---------------------------------------------------5/6-10---6/-8-10--|
A|---------------------------------------------------------------------|
E|-1-----------1-1/4----------6----------1-----------------------------|

E|---------------------------------------------------------------------|
B|-------1--------------4----------4-----------1-----------------------|
G|-----1-----------------5----------5--------1-------3-5-8----5--6-8---|
D|---------------------------------------------------5/6-10---6/-8-10--|
A|---------------------------------------------------------------------|
E|-1-----------1-1/4----------6----------1-----------------------------|

0:38

E|------------------11-8----15-15---------------------------------------|
B|-8b------8b----------------------8--8-----8b------8b-------9----------|
G|------10------10------------------------------10------10--------------|
D|-------------------------------------------------------------11---10~~|
A|----------------------------------------------------------------------|
E|----------------------------------------------------------------------|

E|------------------11-8----15-15\--------------------------------------|
B|-8b------8b----------------------8--8-----8b------8b-------9----------|
G|------10------10------------------------------10------10--------------|
D|-------------------------------------------------------------11---10~~|
A|----------------------------------------------------------------------|
E|----------------------------------------------------------------------|

1:02

E|-8-8-11-11--8--8----8----8-----8-8-11-11--8----8----8----8-|
B|-----------------------------------------------------------|
G|-----------------------------------------------------------|
D|-------------10--10----10-------------------10---10---10---|
A|-----------------------------------------------------------|
E|-----------------------------------------------------------|

E|-8-8-11-11--8--8----8----8-----8-8-11-11--8----8----8----8-|
B|-----------------------------------------------------------|
G|-----------------------------------------------------------|
D|-------------10--10----10-------------------10---10---10---|
A|-----------------------------------------------------------|
E|-----------------------------------------------------------|

E|-8-8-11-11--8--8----8----8-----8-8-11-11--8----8----8----8-|
B|-----------------------------------------------------------|
G|-----------------------------------------------------------|
D|-------------10--10----10-------------------10---10---10---|
A|-----------------------------------------------------------|
E|-----------------------------------------------------------|

E|-8-8-11-11--8--8----8----8-----8-8-11-11--8--------|
B|---------------------------------------------------|
G|---------------------------------------------------|
D|-------------10----10----10-----------------10-----|
A|-----------------------------------------------8---|
E|---------------------------------------------------|

1:25

E|-------------------------------------------------------|
B|-------------------------------------------------------|
G|--------------------------------------------6~--3~-----|
D|-3--3--3--3-3--3--3--3--3-3-3/6--6--6--6-6--6~--3~-----|
A|-3--3--3--3-3--3--3--3--3-3-3/6--6--6--6-6--4~--1~-----|
E|-1--1--1--1-1--1--1--1--1-1-1/4--4--4--4-4-------------|

E|---------------------------------------------------------------|
B|-8b----------8b-------------------9----------------------------|
G|--------10----------10---8-------------12-12-------------------|
D|-----------------------------10--------------------------------|
A|----------------------------------------------12-12~~~---------|
E|---------------------------------------------------------------|

E|------------------------------------------------------------|
B|------------------------------------------------------------|
G|--------------------------------------------6-6-6-6-6-6-6-6-|
D|-3--3--3--3-3--3--3--3--3-3-3/6--6--6--6-6--6-6-6-6-6-6-6-6-|
A|-3--3--3--3-3--3--3--3--3-3-3/6--6--6--6-6--4-4-4-4-4-4-4-4-|
E|-1--1--1--1-1--1--1--1--1-1-1/4--4--4--4-4------------------|

E|----------------------------------------------------|
B|-8b----------8b----------9--------------------------|
G|--------10----------10------------------------------|
D|-----------------------------11--------10~~~--------|
A|----------------------------------------------------|
E|----------------------------------------------------|

1:48

E|-8--8--11-11--8----8-----8-----8------8--8--11-11--8----8-----8-----8--|
B|-----------------------------------------------------------------------|
G|-----------------------------------------------------------------------|
D|-----------------10----10----10-----------------------10----10----10---|
A|-----------------------------------------------------------------------|
E|-----------------------------------------------------------------------|

E|-8--8--11-11--8----8-----8-----8------8--8--11-11--8----8-----8-----8--|
B|-----------------------------------------------------------------------|
G|-----------------------------------------------------------------------|
D|-----------------10----10----10-----------------------10----10----10---|
A|-----------------------------------------------------------------------|
E|-----------------------------------------------------------------------|

E|-8--8--11-11--8----8-----8-----8------8--8--11-11--8----8-----8-----8--|
B|-----------------------------------------------------------------------|
G|-----------------------------------------------------------------------|
D|-----------------10----10----10-----------------------10----10----10---|
A|-----------------------------------------------------------------------|
E|-----------------------------------------------------------------------|

E|-8--8--11-11--8----8-----8-----8------8--8--11-11--8----8-----8-----8--|
B|-----------------------------------------------------------------------|
G|-----------------------------------------------------------------------|
D|-----------------10----10----10-----------------------10----10----10---|
A|-----------------------------------------------------------------------|
E|-----------------------------------------------------------------------|

E|-8--8--11-11--8----8-----8-----8------8--8--11-11--8----8-----8-----8--|
B|-----------------------------------------------------------------------|
G|-----------------------------------------------------------------------|
D|-----------------10----10----10-----------------------10----10----10---|
A|-----------------------------------------------------------------------|
E|-----------------------------------------------------------------------|

E|-8--8--11-11--8----8-----8-----8------8--8--11-11--8----8-----8-----8--|
B|-----------------------------------------------------------------------|
G|-----------------------------------------------------------------------|
D|-----------------10----10----10-----------------------10----10----10---|
A|-----------------------------------------------------------------------|
E|-----------------------------------------------------------------------|

2:23

E|----------------------------------------15-------------|
B|-8b----------8b----------------------------------------|
G|--------10----------10---8----------12------12-12~-----|
D|-----------------------------10------------------------|
A|-------------------------------------------------------|
E|-------------------------------------------------------|

E|-8--8--11-11--8----8-----8-----8------8--8--11-11--8----8-----8-----8--|
B|-----------------------------------------------------------------------|
G|-----------------------------------------------------------------------|
D|-----------------10----10----10-----------------------10----10----10---|
A|-----------------------------------------------------------------------|
E|-----------------------------------------------------------------------|

E|----------------------------------------------------|
B|-8b----------8b----------9--------------------------|
G|--------10----------10------------------------------|
D|-----------------------------11--------10~~~--------|
A|----------------------------------------------------|
E|----------------------------------------------------|

E|-8--8--11-11--8----8-----8-----8------8--8--11-11--8----8----|
B|-------------------------------------------------------------|
G|-------------------------------------------------------------|
D|-----------------10----10----10-----------------------10-----|
A|-------------------------------------------------------------|
E|-------------------------------------------------------------|

2:34

E|-------------------------------------------------------------|
B|-------------------------------------------------------------|
G|--------------------------------------------6--6-6--3-3--3--3|
D|-3--3--3--3-3--3--3--3--3-3-3/6--6--6--6-6--6--6-6--3-3--3--3|
A|-3--3--3--3-3--3--3--3--3-3-3/6--6--6--6-6--4--4-4--1-1--1--1|
E|-1--1--1--1-1--1--1--1--1-1-1/4--4--4--4-4-------------------|

E|---------------------------------------------------------------|
B|-8b----------8b-------------------9----------------------------|
G|--------10----------10---8-------------12-12-------------------|
D|-----------------------------10--------------------------------|
A|----------------------------------------------10-10~~~---------|
E|---------------------------------------------------------------|

E|------------------------------------------------------------|
B|------------------------------------------------------------|
G|--------------------------------------------6-6-6-6-6-6-6-6-|
D|-3--3--3--3-3--3--3--3--3-3-3/6--6--6--6-6--6-6-6-6-6-6-6-6-|
A|-3--3--3--3-3--3--3--3--3-3-3/6--6--6--6-6--4-4-4-4-4-4-4-4-|
E|-1--1--1--1-1--1--1--1--1-1-1/4--4--4--4-4------------------|

E|----------------------------------------------------|
B|-8b----------8b----------9--------------------------|
G|--------10----------10------------------------------|
D|-----------------------------11--------10~~~--------|
A|----------------------------------------------------|
E|----------------------------------------------------|

E|-----------------------------------------------------------|
B|-----------------------------------------------------------|
G|-------------------------------------------6--6-6--3-3-3-3-|
D|-3--3--3--3-3--3--3--3--3-3-3/6--6--6--6-6-6--6-6--3-3-3-3-|
A|-3--3--3--3-3--3--3--3--3-3-3/6--6--6--6-6-4--4-4--1-1-1-1-|
E|-1--1--1--1-1--1--1--1--1-1-1/4--4--4--4-4-----------------|

E|---------------------------------------------------------------|
B|-8b----------8b-------------------9----------------------------|
G|--------10----------10---8-------------12-12-------------------|
D|-----------------------------10--------------------------------|
A|----------------------------------------------10-10~~~---------|
E|---------------------------------------------------------------|

E|------------------------------------------------------------|
B|------------------------------------------------------------|
G|--------------------------------------------6-6-6-6-6-6-6-6-|
D|-3--3--3--3-3--3--3--3--3-3-3/6--6--6--6-6--6-6-6-6-6-6-6-6-|
A|-3--3--3--3-3--3--3--3--3-3-3/6--6--6--6-6--4-4-4-4-4-4-4-4-|
E|-1--1--1--1-1--1--1--1--1-1-1/4--4--4--4-4------------------|

E|----------------------------------------------------|
B|-8b----------8b----------9--------------------------|
G|--------10----------10------------------------------|
D|-----------------------------11--------10~~~--------|
A|----------------------------------------------------|
E|----------------------------------------------------|

2:58

Solo =

E|----------------------------------------------------|
B|----------------------------------------------------|
G|-5b--------------5b---------------------------------|
D|-------6/8--5-------8--6-8--5---5-6-5-3-5-3---------|
A|----------------------------------------------6-3---|
E|----------------------------------------------------|

E|-----------------------------------------------------|
B|-----------------------------------------------------|
G|------------------------------------5-----5/8--------|
D|------------------10---------------------------------|
A|--3/8----------8------8----3----4------4-------------|
E|-----------------------------------------------------|
   
E|-8b-------------------8b--------------------------------------|
B|---------9/11-8------------11-9--11--8--8--9--8--6-8--6-------|
G|--------------------------------------------------------8--8--|
D|--------------------------------------------------------------|
A|--------------------------------------------------------------|
E|--------------------------------------------------------------|

E|--------------------------------------------------------|
B|-----------------13-----------------------11------------|
G|--8/10------/10------10--------------------------12~~~~-|
D|---------------------------------------10----10---------|
A|--------------------------------------------------------|
E|--------------------------------------------------------|

3:22

E|----------------------------------------------------------|
B|----------------------------------------------------------|
G|----------------------------------------------------------|
D|-----10---------10------------10--------------------------|
A|-8-8---------8---------11-11---------8/11-11-11-11\8-8-8--|
E|----------------------------------------------------------|

E|-------------------------------------------------------------|
B|-------------------------------------------------------------|
G|-------------------------------------------------------------|
D|-----10---------10------------10-----------------------------|
A|-8-8---------8---------11-11---------8/11-11-11-11/14-14-14--|
E|-------------------------------------------------------------|

E|---------------------------------------------------------------|
B|-9-------------------------------------------------------------|
G|---------------------------------------------------------------|
D|---------------------------------------------------------------|
A|---------------------------------------------------------------|
E|---------------------------------------------------------------|

E|----------------------------------------------------------|
B|----------------------------------------------------------|
G|----------------------------------------------------------|
D|-----10---------10------------10--------------------------|
A|-8-8---------8-----------11-11-------8/11-11-11-11\8-8-8--|
E|----------------------------------------------------------|

E|---------------------------------------------------------------|
B|-9------------------------8------------------------------------|
G|---------------------------------------------------------------|
D|---------------------------------------------------------------|
A|---------------------------------------------------------------|
E|---------------------------------------------------------------|

E|-------------------------------------------------------------|
B|-------------------------------------------------------------|
G|-------------------------------------------------------------|
D|-----10---------10------------10-----------------------------|
A|-8-8---------8----------11-11--------8/11-11-11-11/14-14-14--|
E|-------------------------------------------------------------|

E|---------------------------------------------------------------|
B|-9------------------------8------------------------------------|
G|---------------------------------------------------------------|
D|---------------------------------------------------------------|
A|---------------------------------------------------------------|
E|---------------------------------------------------------------|

E|----------------------------------------------------------|
B|----------------------------------------------------------|
G|----------------------------------------------------------|
D|-----10---------10------------10--------------------------|
A|-8-8---------8----------11-11--------8/11-11-11-11\8-8-8--|
E|----------------------------------------------------------|

E|---------------------------------------------------------------|
B|-9------------------------8------------------------------------|
G|---------------------------------------------------------------|
D|---------------------------------------------------------------|
A|---------------------------------------------------------------|
E|---------------------------------------------------------------|

E|-------------------------------------------------------------|
B|-------------------------------------------------------------|
G|-------------------------------------------------------------|
D|-----10---------10------------10-----------------------------|
A|-8-8---------8----------11-11--------8/11-11-11-11/14-14-14--|
E|-------------------------------------------------------------|

E|---------------------------------------------------------------|
B|-9------------------------8------------------------------------|
G|---------------------------------------------------------------|
D|---------------------------------------------------------------|
A|---------------------------------------------------------------|
E|---------------------------------------------------------------|

E|----------------------------------------------------------|
B|----------------------------------------------------------|
G|----------------------------------------------------------|
D|-----10---------10------------10--------------------------|
A|-8-8---------8----------11-11--------8/11-11-11-11\8-8-8--|
E|----------------------------------------------------------|

E|---------------------------------------------------------------|
B|-9------------------------8------------------------------------|
G|---------------------------------------------------------------|
D|---------------------------------------------------------------|
A|---------------------------------------------------------------|
E|---------------------------------------------------------------|

E|-------------------------------------------------------------|
B|-------------------------------------------------------------|
G|-------------------------------------------------------------|
D|-----10---------10------------10-----------------------------|
A|-8-8---------8----------11-11--------8/11-11-11-11/14-14-14--|
E|-------------------------------------------------------------|

E|---------------------------------------------------------------|
B|-9------------------------8------------------------------------|
G|---------------------------------------------------------------|
D|---------------------------------------------------------------|
A|---------------------------------------------------------------|
E|---------------------------------------------------------------|

E|---------------------------------------------------------------|
B|-9------------------------8------------------------------------|
G|---------------------------------------------------------------|
D|---------------------------------------------------------------|
A|---------------------------------------------------------------|
E|---------------------------------------------------------------|

4:08

E|-----------------------------------------------------------|
B|-----------------------------------------------------------|
G|-------------------------------------------6--6-6--3-3-3-3-|
D|-3--3--3--3-3--3--3--3--3-3-3/6--6--6--6-6-6--6-6--3-3-3-3-|
A|-3--3--3--3-3--3--3--3--3-3-3/6--6--6--6-6-4--4-4--1-1-1-1-|
E|-1--1--1--1-1--1--1--1--1-1-1/4--4--4--4-4-----------------|

E|------------------------------------------------------------|
B|------------------------------------------------------------|
G|-------------------------------------------6-6-6-6-6-6-6-6--|
D|-3--3--3--3-3--3--3--3--3-3-3/6--6--6--6-6-6-6-6-6-6-6-6-6--|
A|-3--3--3--3-3--3--3--3--3-3-3/6--6--6--6-6-4-4-4-4-4-4-4-4--|
E|-1--1--1--1-1--1--1--1--1-1-1/4--4--4--4-4------------------|

E|------------------------------------------------------------|
B|------------------------------------------------------------|
G|-------------------------------------------6--6-6--3-3-3-3--|
D|-3--3--3--3-3--3--3--3--3-3-3/6--6--6--6-6-6--6-6--3-3-3-3--|
A|-3--3--3--3-3--3--3--3--3-3-3/6--6--6--6-6-4--4-4--1-1-1-1--|
E|-1--1--1--1-1--1--1--1--1-1-1/4--4--4--4-4------------------|

E|------------------------------------------------------------|
B|------------------------------------------------------------|
G|-------------------------------------------6-6-6-6-6-6-6-6--|
D|-3--3--3--3-3--3--3--3--3-3-3/6--6--6--6-6-6-6-6-6-6-6-6-6--|
A|-3--3--3--3-3--3--3--3--3-3-3/6--6--6--6-6-4-4-4-4-4-4-4-4--|
E|-1--1--1--1-1--1--1--1--1-1-1/4--4--4--4-4------------------|

E|----------------------------------------------------------|
B|-8b----------8b---------8--8------------------------------|
G|--------10----------10------------------------------------|
D|----------------------------------------------------------|
A|----------------------------------------------------------|
E|----------------------------------------------------------|

E|------------------------------------------------------------|
B|------------------------------------------------------------|
G|-------------------------------------------6--6-6--3-3-3-3--|
D|-3--3--3--3-3--3--3--3--3-3-3/6--6--6--6-6-6--6-6--3-3-3-3--|
A|-3--3--3--3-3--3--3--3--3-3-3/6--6--6--6-6-4--4-4--1-1-1-1--|
E|-1--1--1--1-1--1--1--1--1-1-1/4--4--4--4-4------------------|

E|----------------------------------------------------------|
B|-8b----------8b---------8--8------------------------------|
G|--------10----------10------------------------------------|
D|----------------------------------------------------------|
A|----------------------------------------------------------|
E|----------------------------------------------------------|

E|------------------------------------------------------------|
B|------------------------------------------------------------|
G|-------------------------------------------6-6-6-6-6-6-6-6--|
D|-3--3--3--3-3--3--3--3--3-3-3/6--6--6--6-6-6-6-6-6-6-6-6-6--|
A|-3--3--3--3-3--3--3--3--3-3-3/6--6--6--6-6-4-4-4-4-4-4-4-4--|
E|-1--1--1--1-1--1--1--1--1-1-1/4--4--4--4-4------------------|

E|----------------------------------------------------------|
B|-8b----------8b---------8--8------------------------------|
G|--------10----------10------------------------------------|
D|----------------------------------------------------------|
A|----------------------------------------------------------|
E|----------------------------------------------------------|

E|----------------------------------------------------------|
B|----------------------------------------------------------|
G|-------------------------------------------6--6-6-3-3-3-3-|
D|-3--3--3--3-3--3--3--3--3-3-3/6--6--6--6-6-6--6-6-3-3-3-3-|
A|-3--3--3--3-3--3--3--3--3-3-3/6--6--6--6-6-4--4-4-1-1-1-1-|
E|-1--1--1--1-1--1--1--1--1-1-1/4--4--4--4-4----------------|

E|----------------------------------------------------------|
B|-8b----------8b---------8--8------------------------------|
G|--------10----------10------------------------------------|
D|----------------------------------------------------------|
A|----------------------------------------------------------|
E|----------------------------------------------------------|

E|------------------------------------------------------------|
B|------------------------------------------------------------|
G|-------------------------------------------6-6-6-6-6--------|
D|-3--3--3--3-3--3--3--3--3-3-3/6--6--6--6-6-6-6-6-6-6-2------|
A|-3--3--3--3-3--3--3--3--3-3-3/6--6--6--6-6-4-4-4-4-4-2------|
E|-1--1--1--1-1--1--1--1--1-1-1/4--4--4--4-4-----------0------|
                                                       
Tap to rate this tab
# A B C D E F G H I J K L M N O P Q R S T U V W X Y Z