Song name
# A B C D E F G H I J K L M N O P Q R S T U V W X Y Z

Bring Me The Horizon - Blessed With A Curse tab

I Have Put It On Standard.

Intro/Verse = 

E|----------------|---------------------------|
B|----------------|---------------------------|
G|-3~---2~---0~---|---3~---5~---10~-----------|(x3)
D|-5~---3~---1~---|---5~---7~---12~----8~-----|
A|----------------|---------------------------|
E|----------------|---------------------------|

E|----------------|---------------------------------------------|
B|----------------|---------------------------------------------|
G|-3~---2~---0~---|---3~---5~---8-8-8-8-8-8-8-8-8-8-8-8-8-8-8-8-|
D|-5~---3~---1~---|---5~---7~---8-8-8-8-8-8-8-8-8-8-8-8-8-8-8-8-|
A|----------------|-------------6-6-6-6-6-6-6-6-6-6-6-6-6-6-6-6-|
E|----------------|---------------------------------------------|
                            
Chorus =

E|------------------------------------------|
B|------------------------------------------|
G|-------7777-------7777-6~-88-777788887777-|(x2) 
D|-5~-55-xxxx-3~-33-xxxx-6~-88-xxxxxxxxxxxx-|
A|-5~-55-5555-3~-33-5555-6~-88-555566665555-|
E|-3~-33------1~-11-------------------------|

Chorus Outro =

E|----------------|
B|----------------|
G|-3~---2~---0~---|
D|-5~---3~---1~---|
A|----------------|
E|----------------|

Verse 2 =

E|----------------|-------------------------|
B|----------------|-------------------------|
G|-3~---2~---0~---|---3~---5~---10~---------|(x2)  
D|-5~---3~---1~---|---5~---7~---12~----8~---|
A|----------------|-------------------------|
E|----------------|-------------------------|

Bridge =

E|------------------|-------------|
B|------------------|-------------|
G|-8----------------|-------8-----|   2X
D|-8-----3----5-----|-3-----8-----|
A|-6-x12-3-x4-5-x16-|-3-x16-6-x16-|
E|-------1----3-----|-1-----------|

Chorus =

E|------------------------------------------|
B|------------------------------------------|
G|-------7777-------7777-6~-88-777788887777-|(x4) 
D|-5~-55-xxxx-3~-33-xxxx-6~-88-xxxxxxxxxxxx-|
A|-5~-55-5555-3~-33-5555-6~-88-555566665555-|
E|-3~-33------1~-11-------------------------|

During Solo =

E|----------------------|
B|----------------------|
G|-----------8----------|(x2)
D|-5----3----8-----3----| 
A|-5-x8-3-x8-6-x12-3-x4-|
E|-3----1----------1----|

E|---------------------------------------|
B|---------------------------------------|
G|------7777------7777-8888-777788887777-|(x2)
D|-5555-xxxx-3333-xxxx-8888-xxxxxxxxxxxx-| 
A|-5555-5555-3333-5555-6666-555566665555-|
E|-3333------1111------------------------|

Solo = 

E|----------------10-13-15-17^17-15p13-15\18-15~-------------------|
B|---------11-8~---------------------------------------------------|
G|---7-10----------------------------------------------------------|
D|-----------------------------------------------------------------|
A|-----------------------------------------------------------------|
E|-----------------------------------------------------------------|

E|-----------------------------------------------------------------|
B|-----------------------------------8-6-3-------------------------|
G|--------------------------------7^-------------------------------| 
D|--5-8-10^10^10^10p8-5~--333~-------------------------------------|
A|-----------------------------------------------------------------|
E|-----------------------------------------------------------------|

E|-----------------------------------------------------------------|
B|-----------------------------------------------------------------|
G|--5p3-5p3--------------------------------------------------------|
D|----------5p3-5p3------------------------------------------------|
A|------------------5p3-5p3--3p1-3p1-------------------------------|
E|-----------------------------------3p1-3p1-3~--------------------|

E|-------------------------------------|
B|-------------------------------------|
G|------2-2-------2-2--8-8--2-2----8-8-|(Repeat Until The Solo End)
D|-5-5--0-0--3-3--0-0--8-8--0-0----8-8-|
A|-5-5--0-0--3-3--0-0--6-6--0-0----6-6-|
E|-3-3-------1-1-----------------------|

E|-----------------------------------------------------------------|
B|-----------------------------------------------------------------|
G|--7-10-12-12\15-12~----7-10-12\15-12-15-15\17-15-17-17^17p15-12~-| 
D|-----------------------------------------------------------------|
A|-----------------------------------------------------------------|
E|-----------------------------------------------------------------|

E|-------------------------------------------------------------------------|
B|-----------------------------11------------------------------------------|
G|---12-15-17-17^17p15-17~---7----10-12~--101010-88-7-8p7~--555-33-2-3p12--| 
D|-------------------------------------------------------------------------|
A|-------------------------------------------------------------------------|
E|-------------------------------------------------------------------------|

E|-----------------------------------------------------------------|
B|-----------------------------------------------------------------|
G|--10-12-14-14^14p12-14^-1010~------10-12-14-14^14p12-14^-1212----| 
D|-----------------------------------------------------------------|
A|-----------------------------------------------------------------|
E|-----------------------------------------------------------------|

E|--151515-131313-111111-101010-11p10~-----888-66-5-6p5~-----------|
B|-----------------------------------------------------------------|
G|-----------------------------------------------------------------| 
D|-----------------------------------------------------------------|
A|-----------------------------------------------------------------|
E|-----------------------------------------------------------------|
Tap to rate this tab
# A B C D E F G H I J K L M N O P Q R S T U V W X Y Z