Song name
# A B C D E F G H I J K L M N O P Q R S T U V W X Y Z

Bring Me The Horizon - 15 Fathoms Counting tab

-------------------------------------------------------------------------------
			     15 Fathoms Counting - Bring Me The Horizon
-------------------------------------------------------------------------------
Tabbed by: THEHEARTLESSGARM
E-mail: Javi_f-14@hotmail.com

Ok, i noticed that theres no tab for the electric guitar in this awesome song so here is:

Tuning:Drop B
Intro 
e|-----17~----------17~---------17~----------17~-----------------------------|
B|---------------------------------------------------------------------------|
G|---------------------------------------------------------------------------|
D|---------------------------------------------------------------------------|
A|---------------------------------------------------------------------------|
E|---------------------------------------------------------------------------|

e|-----17~---------15~-----14~-----------17~---------------------------------|
B|-------------------------------15~-----------------------------------------|
G|-----------------------------------------------Do This Part 4 times--------|
D|---------------------------------------------------------------------------|
A|---------------------------------------------------------------------------|
E|---------------------------------------------------------------------------|
  After the little acoustic break it goes like this:
e|-----17~--------15~----------------17~---------15~-------------------------|
B|------------------------15~-------------------------------15~--------------|
G|---------------------------------------------------------------------------|
D|---------------------------------------------------------------------------|
A|---------------------------------------------------------------------------|
E|---------------------------------------------------------------------------|
  Outro:
e|-17~~~---------22~~-------19~~--------17~~~~~~-----------------------------|
B|---------------------------------------------------------------------------|
G|----------------------------------------------------Fades Out--------------|
D|---------------------------------------------------------------------------|
A|---------------------------------------------------------------------------|
E|---------------------------------------------------------------------------|
You can use the volume knob to do the fade in/out effect
Thats all, Grettings from Monterrey Mexico :)
if you want to check out my cover youtube.com/watch?v=w6OfiMTLMnU


************************************

| /   slide up
| \   slide down
| h   hammer-on
| p   pull-off
| ~   vibrato
| +   harmonic
| x   Mute note
| b   Bend
| pb  Pre-bend
| br  Bend release
| pbr Pre-bend release
| brb Bend release bend

************************************
Tap to rate this tab
# A B C D E F G H I J K L M N O P Q R S T U V W X Y Z