Song name
# A B C D E F G H I J K L M N O P Q R S T U V W X Y Z

Bring Me The Horizon - Re They Have No Reflections tab

                       RE: THEY HAVE NO REFLECTIONS
                            Bring Me The Horizon
   (From The 2005 Album This Is What The Edge Of Your Seat Was Made For!!)


Transcribed by Jonathan Casper (confinedforever)

Gtr 1 & 2 - Tuning Drop B - (B F# B E G# C#)

/ - SLIDE UP TO          h - HAMMER ON
\ - SLIDE DOWN TO        p - PULL OF
~ - HOLD NOTE            * - PALM MUTE
t - TREMOLO PICKING     [] - ARTIFICAL PINCH HARMONIC




I KNOW THIS TAB IS 100% CORRECT SO DON'T TRY ARGUING WITH ME ABOUT IT!



 Intro: 
 Guitar 1 & 2 
|--------14-14-------14-14-----------14-14-------14-14------14--14--14--14-|
|--------18-18-------18-18-----------18-18-------18-18------18--18--18--18-|
|--------------------------------------------------------------------------|
|--------------------------------------------------------------------------|
|--0-0-0-------0-0-0-------0-0-0-0-0-------0-0-0-------0-0-0---------------|
|--0-0-0-------0-0-0-------0-0-0-0-0-------0-0-0-------0-0-0---------------|
   * * *       * * *       * * * * *       * * *       * * * 

Verse 1 Part 1:
  Guitar 1
|-----------------------------------|------14-14-------14-14--|
|-----------------------------------|------18-18-------18-18--|
|--(10p0-9p0-10p0-13p0-12p0-10p0)---|-------------------------| x4
|-----------------------------------|-------------------------|
|-----------------------------------|-0-0-0-------0-0-0-------| 
|-----------------------------------|-0-0-0-------0-0-0-------|
                                      * * *       * * *

  Guitar 2
|-----------------------------------|------14-14-------14-14--|
|-----------------------------------|------18-18-------18-18--|
|-----------------------------------|-------------------------| x4
|-----------------------------------|-------------------------|
|--0-0-0--------------0-0-0---------|-0-0-0-------0-0-0-------|
|--0-0-0--------------0-0-0---------|-0-0-0-------0-0-0-------|
   * * *              * * *           * * *       * * * 

 Verse 1 Part 2: 
  Guitar 1 & 2
|-------------------------------14-14-------14-14--|
|-------------------------------18-18-------18-18--|
|--------------------------------------------------| x2
|--------------------------------------------------|
|--0-0-0-------0-0-0-------0-0-0------0-0-0--------|
|--0-0-0-------0-0-0-------0-0-0------0-0-0--------|
   * * *       * * *       * * *      * * * 

 Verse 1 Part 1:
  Guitar 1
|-----------------------------------|------14-14-------14-14--|
|-----------------------------------|------18-18-------18-18--|
|--(10p0-9p0-10p0-13p0-12p0-10p0)---|-------------------------| x2
|-----------------------------------|-------------------------|
|-----------------------------------|-0-0-0-------0-0-0-------| 
|-----------------------------------|-0-0-0-------0-0-0-------|
                                      * * *       * * *

  Guitar 2
|-----------------------------------|------14-14-------14-14--|
|-----------------------------------|------18-18-------18-18--|
|-----------------------------------|-------------------------| x2
|-----------------------------------|-------------------------|
|--0-0-0--------------0-0-0---------|-0-0-0-------0-0-0-------|
|--0-0-0--------------0-0-0---------|-0-0-0-------0-0-0-------|
   * * *              * * *           * * *       * * *


 Fill 1:
  Guitar 1 + 2
|-------------------------------------------|
|-------------------------------------------|
|-------------------------------------------| x2
|-------------------------------------------|
|--0--12h13p12----10--0--12h13p12----10--7--|
|--0------------8-----0------------8--------|
   *                  * 

 Verse 2:
  Guitar 1 + 2
|----------------------------------------------------------|
|----------------------------------------------------------|
|----------------------------------------------------------| x2
|----------------------------------8t-10t-7t-----7t-8t-5t--|
|--0--8t-10t-8t-12t-10t-8t-10t-----------------------------|
|--0----------------------------8-------------7------------|
   *                            *             *                 

  Guitar 1 + 2
|------------------------------------------------------|
|------------------------------------------------------|
|------------------------------------------------------| x2
|------------------------------8t-10t-7t-----7t-8t-5t--|
|--0-0-0-0--12t-10t-8t-10t-----------------------------|
|--0-0-0-0------------------8-------------7------------|
   * * * *                  *             *

  Guitar 1
|------------------------------------------------------|
|------------------------------------------------------|
|------------------------------------------------------| --|
|------------------------------8t-10t-7t-----7t-8t-5t--|   |
|--0-0-0-0--12t-10t-8t-10t-----------------------------|   | 
|--0-0-0-0------------------8-------------7------------|   |
   * * * *                  *             *                | x2
                                                           |
  Guitar 2                                                 |
|------------------------------------------------------|   |
|------------------------------------------------------|   |
|------------------------------------------------------| --|
|------------10t-8t-7t-8t------8t-10t-7t-----7t-8t-5t--|
|--0-0-0-0---------------------------------------------|
|--0-0-0-0------------------8-------------7------------|
   * * * *                  *             *

 Guitar 1 & 2
|-------------------------------------------------|
|-------------------------------------------------|
|-------------------------------------------------|
|-------------------------------------------------|
|--0-0-0-0-0-0-0-0-0-0-0-0-0-0-0-0-0-0-0-0-0-0-0--|
|--0-0-0-0-0-0-0-0-0-0-0-0-0-0-0-0-0-0-0-0-0-0-0--|
   * * * * * * * * * * * * * * * * * * * * * * *


Interlude 1:
  Guitar 1 + 2
|---------------------------|   
|---------------------------|    
|---------------------------| x3 
|---------------------------|   
|--0-0-0-0---0---0-0-0-0-0--|    
|--0-0-0-0---0---0-0-0-0-0--|  
   * * * *   *   * * * * * 

|-----------------------------------------|
|-----------------------------------------|
|-----------------------------------------|
|-----------------------------------------|
|--0-0-0-0---0---0---0---0---0-0-0-0-0-0--|
|--0-0-0-0---0---0---0---0---0-0-0-0-0-0--|
   * * * *   *   *   *   *   * * * * * *

  Verse 3:
  Guitar 1
|---------------------------------------------------------|
|---------------------------------------------------------|
|---------------------------------------------------------|
|---------------------------------------------------------|
|------8t-7t-8t-12t-8t-7t-10t-----8t-7t-8t-12t-10t-8t-7t--|
|--12-------------------------12--------------------------|

|--------------------------------------------------------------|
|--------------------------------------------------------------|
|-------------------------------14t-12t-10t-12t-10t-9t-10t-9t--|
|-----------------------15t-14t--------------------------------|
|------8t-7t-8t-12t-10t----------------------------------------|
|--12----------------------------------------------------------|

  Guitar 2
|---------------------------|   
|---------------------------|    
|---------------------------| x4 
|---------------------------|   
|--0-0-0-0---0---0-0-0-0-0--|    
|--0-0-0-0---0---0-0-0-0-0--|  
   * * * *   *   * * * * *

  Breakdown:
  Guitar 1 & 2
|---------------------------------------------------------|
|---------------------------------------------------------|
|---------------------------------------------------------|
|---------------------------------------------------------|
|-0-5-3-0-1~------------0-5-3-0-1~------------0-5-3-0-1~--|
|-0-5-3-0-1~------------0-5-3-0-1~------------0-5-3-0-1~--|
  * * * *               * * * *               * * * *

  Verse 4:
  Guitar 1 & 2
|------------------------------------|
|-----------12\--------------12/14\--|
|-----------15\--------------15/17\--| x4
|------------------------------------|
|--0-1-0-0------0-1-0-1-0-0----------|
|--0-1-0-0------0-1-0-1-0-0----------|
   * * * *      * * * * * *

yea i can't figure that solo thingy either
cuz it is super hard to hear! sorry =[

  Guitar 1 & 2
|------------------------------------|
|-----------12\--------------12/14\--|
|-----------15\--------------15/17\--| x4
|------------------------------------|
|--0-1-0-0------0-1-0-1-0-0----------|
|--0-1-0-0------0-1-0-1-0-0----------|
   * * * *      * * * * * *

  Guitar 1 & 2
|----------------------------------------|
|----------------------------------------|
|----------------------------------------|
|----------------------------------------|
|--0-5-3-0-1p0~------------0-5-3-0-1p0~--|
|--0-5-3-0-1p0~------------0-5-3-0-1p0~--|
    * * * *                 * * * *

  Verse 5:
  Guitar 1 & 2
|----------------------------------------|
|----------------------------------------|
|----------------------------------------|
|----------------------------------------|
|--0-5-3-0-1p0~------------0-5-3-0-1p0~--|
|--0-5-3-0-1p0~------------0-5-3-0-1p0~--|
    * * * *                 * * * *

  Guitar 1 & 2
|-----------------------------------------------|
|-----------------------------------------------|
|-----------[12]\-----------[12]\--------[12]\--| x4
|-----------------------------------------------|
|--0-5-3-0--------0-3-1-0----------1-0----------|
|--0-5-3-0--------0-3-1-0----------1-0----------|
   * * *          * * *            *

Interlude 2:
  Guitar 1 
|---------------------------------------|
|---------------------------------------|
|--8-7----------------------------------|
|--8-7-------------------8-7-5h7p5------|
|--6-5---------------5-6-----------7p5--|
|-------0-0-0-0-000---------------------|         
        * * * * ***
  Guitar 2
|------------------|
|------------------|
|------------------|
|------------------|
|---0~-------------|
|---0~-------------|

  Guitar 1
|---------------------------------------------|
|---------------------------------------------|
|--8-7----------------------------------------|
|--8-7----------------------------------------|
|--6-5---------------5h6p5h6p5h6-7h8p7h8p7h8--|
|-------0-0-0-0-000---------------------------|
        * * * * ***
 
  Guitar 1                                                  Guitar 1 & 2
|----------------------------------------------------------|------------|
|----------------------------------------------------------|------------|
|--8-7------------------------------------8-7--------------|-8-8---7-7--|
|--8-7-------------------8-7-5h7p5--------8-7--------------|-8-8---7-7--|
|--6-5---------------5-6-----------7p5----6-5--------------|-6-6---5-5--|
|-------0-0-0-0-000----------------------------0-0-0-0-000-|------------|
        * * * * ***                            * * * * ***
  Guitar 2
|------------|
|------------|
|--8-7-------|
|--8-7-------|
|--6-5-------|
|------------|
       
  Guitar 1 & 2
|---------------------------------------|
|---------------------------------------|
|--8-7----------------------------------|
|--8-7-------------------8-7-5h7p5------|
|--6-5---------------5-6-----------7p5--|
|-------0-0-000-0-0---------------------|         
        * * *** * *                                x4
|---------------------------------------------|
|---------------------------------------------|
|--8-7----------------------------------------|
|--8-7----------------------------------------|
|--6-5---------------5h6p5h6p5h6-7h8p7h8p7h8--|
|-------0-0-000-0-0---------------------------|
        * * *** * *

  Verse 5:
  Guitar 1 & 2
|---------------------------------------------------|
|---------------------------------------------------|
|---------------------------------------------------| x2
|---------------------------------------------------|
|--1p0-00-00-00-00-1p0-00--5h6p5h6p5h6-7h8p7h8p7h8--|
|--1p0-00-00-00-00-1p0-00---------------------------|
                **
  Guitar 1 & 2
|----------------------------------------------|
|----------------------------------------------|
|----------------------------------------------| x4
|------------------------------8-7------7/8----|
|-----10t-8t-7t-8t-5t-7t-5t--------8--------8--|
|--12------------------------8--------7--------|
   *                         *        *

  Bridge Part 1:
  Guitar 1 & 2
|-------------------------|
|-------------------------|
|-------10-------12-10-9--| x3
|-------x--------x--x--x--|
|--0-0--8--0-00--10-8--7--|
|--0-0-----0-00-----------|
     *       **
  Guitar 1
|-------------------------|
|-------------------------|
|-------10-------12-10-9--|
|-------x--------x--x--x--|
|--0-0--8--0-00--10-8--7--| --|
|--0-0-----0-00-----------|   |
     *       **               |
  Guitar 2                    | x3
|-------------------------|   |
|-------------------------|   |
|-------------------------|   |
|-------7--------8-7-5----| --|
|--0-0-----0-00-----------|
|--0-0-----0-00-----------|
     *       **

  Bridge Part 2:
  Guitar 1
|--------------------------------|
|--------------------------------|
|-------10-------12-10-9-10-9-5--|
|-------x--------x--x--x-x--x-x--|
|--0-0--8--0-00--10-8--7-8--7-3--| 
|--0-0-----0-00------------------| 
     *       **  

  Guitar 2                  
|-----------------------------| 
|-----------------------------| 
|-----------------------------|  
|-------7--------8-7-5-7-5-2--| 
|--0-0-----0-00---------------|
|--0-0-----0-00---------------|
     *       **

Interlude 2:
  Guitar 1 & 2
|-------------------------------------------------------|
|-------------------------------------------------------|
|-------------------------------------------------------| x2
|-----------------3-2-----2-----------------------------|
|--0-1-3-000---5-------4-----[5]--000-000----0--1--(1)--|
|--0-1-3-000----------------------000-000----0--1--(1)--|
   * * * ***                      *** ***    *

  Outro:
  Guitar 1
|-------------------------------------------------------|
|-------------------------------------------------------|
|-------------------------------------------------------| --|
|-----------------3-2-----2-----------------------------|   |
|--0-1-3-000---5-------4-----[5]--000-000----0--1--(1)--|   |
|--0-1-3-000----------------------000-000----0--1--(1)--|   |
   * * * ***                      *** ***    *              | x9
  Guitar 2                                                  |
|-------------------------------------------------------|   |
|-------------------------------------------------------|   |
|-------------------------------------------------------| --|
|-----------------3-2-----2--[7]------------------------|
|--0-1-3-000---5-------4----------000-000----0--1--(1)--|
|--0-1-3-000----------------------000-000----0--1--(1)--|
   * * * ***                      *** ***    *

  END =D PLEASE RATE AND TELL ME WHAT U THINK!!!






Tap to rate this tab
# A B C D E F G H I J K L M N O P Q R S T U V W X Y Z