Song name
# A B C D E F G H I J K L M N O P Q R S T U V W X Y Z

Bring Me The Horizon - Traitors Never Play Hangmanacoustic tab

Song: Traitos Never Play Hangman(Acoustic)
Artist: Bring Me The Horizon
Tuning: Standard or drop C

Descrip: After Long Hours of watchin' that vid on youtube.com with Dragon slaying and
song right after.. it's Good song though. Good luck.

And here's the link to hear the song.
http://youtube.com/watch?v=rPIGEdey1M8&search=Bring%20Me%20The%20Horizon

Intro
E|----------|
B|----------|
G|----------|
D|----------|
A|--5-5-5-5-|
E|----------|
Pm  . . . .

Repeat until 00:55
|----------------------------------|
|----------------7-----7-----------|
|------7-------7-----7-------7-----|
|----7---7---5-----0-------7---7---|
|--5-------5-------------5-------5-|
|----------------------------------|

 00:55
|------------|-----------|-------------------|
|------------|-----------|-------------------|
|------7-7/--|------9-9/----|------11-11-7-7-|
|----7-7-7---|----9-9-9----|-------11----0-0-|
|--5---5-5---|--7---7-7----|-------9-----0-0-|
|------------|-----------|-------------------|

That's all for now. :)
Tap to rate this tab
 
# A B C D E F G H I J K L M N O P Q R S T U V W X Y Z