Song name
# A B C D E F G H I J K L M N O P Q R S T U V W X Y Z

Bring Me The Horizon - Rawwwr tab

----------------------------------------------------------------------------
			   Rawwwr! - Bring Me The Horizon
----------------------------------------------------------------------------




Gtr I (B F# B E G# C#) - 'Untitled'
Gtr II (B F# B E G# C#) - 'Untitled'






    Q=180
   4/4
    Gtr I
    PM|         PM|         PM|
    E E  E E  E E E  E E  E E E  E  E  E  E
||------------------------------22----22-----||-|
||o-----16---14-----16---14-----16-16-16-16-o||-|
||------19---19-----19---19-----19-19-19-19--||-|
||-------------------------------------------||-|
||o-0-0---------0-0---------0-0-------------o||-|
||--0-0---------0-0---------0-0--------------||-|
|
|   Gtr II
||-------------------------------------------||-|
||o-----------------------------------------o||-|
||-------------------------------------------||-|
||-------------------------------------------||-|
||o-----------------------------------------o||-|
||-------------------------------------------||-|


    PM|         PM|           PM|
    E E  E E  E E E  E  E   E E E  E  E  E  E
||--------------------------------22----22------||
||o-----16---14-----16-----14-----16-16-16-16--o||
||------19---19-----19-----19-----19-19-19-19---||
||----------------------------------------------||
||o-0-0---------0-0-----------0-0--------------o||
||--0-0---------0-0-----------0-0---------------||
|
|   W                  +W
||----------------------------------------------||
||o--------------------------------------------o||
||----------------------------------------------||
||--0------------------(0)----------------------||
||o-0------------------(0)---------------------o||
||--0------------------(0)----------------------||


    PM----|         PM----|         PM--|          PM----|        PM--|
    S S S S S.  E.  S S S S S.  E.  S S S   E.  3x S S S S S.  E. S S E H
||----------------------------------------------||-------------------------|
||o------------12--------------12----------12--o||------------12-----------|
||-------------15--------------15----------15---||------------15-----------|
||----------------------------------------------||-------------------------|
||o-0-0-0-0---------0-0-0-0---------0-0-0------o||-0-0-0-0--------0-0-0----|
||--0-0-0-0---------0-0-0-0---------0-0-0-------||-0-0-0-0--------0-0-0----|
|
|   PM----|         PM----|         PM--|          PM----|        PM--|
|   S S S S S.  E.  S S S S S.  E.  S S S   S.  3x S S S S S.  E. S S E
||----------------------------------------------||-------------------------|
||o------------12--------------12----------12--o||------------12-----------|
||-------------15--------------15----------15---||------------15-----------|
||----------------------------------------------||-------------------------|
||o-0-0-0-0---------0-0-0-0---------0-0-0------o||-0-0-0-0--------0-0-0----|
||--0-0-0-0---------0-0-0-0---------0-0-0-------||-0-0-0-0--------0-0-0----|


    PM----|         PM----|         PM--|
    S S S S S.  E.  S S S S S.  E.  S S S   E.  4x
||----------------------------------------------||
||o------------12--------------12----------12--o||
||-------------15--------------15----------15---||
||----------------------------------------------||
||o-0-0-0-0---------0-0-0-0---------0-0-0------o||
||--0-0-0-0---------0-0-0-0---------0-0-0-------||
|
|   PM----|         PM----|         PM--|
|   S S S S S.  E.  S S S S S.  E.  S S S   E.  4x
||----------------------------------------------||
||o------------12--------------12----------12--o||
||-------------15--------------15----------15---||
||----------------------------------------------||
||o-0-0-0-0---------0-0-0-0---------0-0-0------o||
||--0-0-0-0---------0-0-0-0---------0-0-0-------||


  PM--|           PM|         PM|
  S.. S..  E E  E E E  E E  E E E  E  E  E.  W
|---------------------------------22----22-----|
|---------16---14-----16---14-----16-16-16--16-|
|---------19---19-----19---19-----19-19-19--19-|
|----------------------------------------------|
|-0---0-----------0-0---------0-0--------------|
|-0---0-----------0-0---------0-0--------------|
|
|----------------------------------------------|
|----------------------------------------------|
|----------------------------------------------|
|----------------------------------------------|
|----------------------------------------------|
|----------------------------------------------|


    PM--------------------------|      PM--------------------------|
    S S S S W S S S S H E S E S E  Q   S S S S W S S S S H E S E S E  Q   E S
||------------------------------------------------------------------------||
||o----------------------------------------------------------------------o||
||------------------------------------------------------------------------||
||--------------------------------[3]--------------------------------[3]--||
||o-0---0-0---0-0-0-0---0---0---0------0-0-0-0---0-0-0-0---0---0---0-----o||
||--0-0-0-0---0-0-0-0---0---0---0------0-0-0-0---0-0-0-0---0---0---0------||
|
|   PM------------------------------------------------------------|         
| S S S S W S S S S H E S E S E Q  S S S S W S S S S H E S E S E E Q SW.
||---------------------------------------------------------------------||
||o-------------------------------------------------------------------o||
||---------------------------------------------------------------------||
||---------------------------------------------------------------------||
||o-0000---0000---0---0---0--0---0000---0000---0---0---0--0---0---0---o||
||--0000---0000---0---0---0--0---0000---0000---0---0---0--0---0---0----||



|--------------------------------------------------------------------------|
|-14-14-14-14-14-14-14-14-14-14-14-14-14-14-14-14--14-14-14-14-14-14-14-14-|
|-17-17-17-17-17-17-17-17-17-17-17-17-17-17-17-17--17-17-17-17-17-17-17-17-|
|--------------------------------------------------------------------------|
|--------------------------------------------------------------------------|
|--------------------------------------------------------------------------|

|------------------------------------------------------------------|
|-14-14-14-14-14-14-14-14--14-14-14-14-14-14-14-14-14-14-14-14-14--|
|-17-17-17-17-17-17-17-17--17-17-17-17-17-17-17-17-17-17-17-17-17--|
|------------------------------------------------------------------|
|------------------------------------------------------------------|
|------------------------------------------------------------------|

|---------------------|
|-14----(14)----------|
|-17b18-(17)b18\------|
|---------------------|
|---------------------|
|---------------------|




|
PM-------------------------------------|    PM--------------------------|
|--------------------------------------------------------------------------|
|--------------------------------------------------------------------------|
|--------------------------------------------------------------------------|
|-----------------------------------------[3]------------------------------|
|-0--0--0--0-----0--0--0--0-----0---0---0-------0--0--0--0-----0--0--0--0--|
|-0--0--0--0-----0--0--0--0-----0---0---0-------0--0--0--0-----0--0--0--0--|

(Continued)

PM--------|     PM---|
|------------------------|
|------------------------|
|------------------------|
|------------[3]---------|
|-0---0---0-------0--0---|
|-0---0---0-------0--0---|





   PM-----------------------------------------------------------------------
    E E E E E E E E E E H. E E E E E E E E E E E E E E E E  E E Q. E E Q.  3x
||------------------------------------------------------------------------||
||o----------------------------------------------------------------------o||
||------------------------------------------------------------------------||
||------------------------------------------------------------------------||
||o-1-4-3-1-4-3-1-4-0-0----1-4-3-1-4-3-1-4-0-0-3-1-4-3-1-4--0-0----0-0---o||
||--1-4-3-1-4-3-1-4-0-0----1-4-3-1-4-3-1-4-0-0-3-1-4-3-1-4--0-0----0-0----||
|
|   PM---------------------------------------------------------------|
|   E E E E E E E E E E H. E E E E E E E E E E E E E E E E  E E Q. E E Q.  3x
||------------------------------------------------------------------------||
||o----------------------------------------------------------------------o||
||------------------------------------------------------------------------||
||------------------------------------------------------------------------||
||o-1-4-3-1-4-3-1-4-0-0----1-4-3-1-4-3-1-4-0-0-3-1-4-3-1-4--0-0----0-0---o||
||--1-4-3-1-4-3-1-4-0-0----1-4-3-1-4-3-1-4-0-0-3-1-4-3-1-4--0-0----0-0----||


 ----------|
   E E H E E Q..
|-----------------|
|-----------------|
|-----------------|
|-----------------|
|--0-0---0-0------|
|--0-0---0-0------|
|
|  PM------|
|  E E H E E
|-----------------|
|-----------------|
|-----------------|
|-----------------|
|--0-0---0-0------|
|--0-0---0-0------|


    PM--|       PM|     PM|     PM|     PM|     PM|     PM|     PM|
    S.. S..  E. E E  E. E E  E. E E  E. E E  E. E E  E. E E  E. E E  E.
||-----------------------------------------------------------------------||
||o----------9-------9-------9-------9-------9-------9-------9-------9--o||
||----------12------12------12------12------12------12------12------12---||
||-----------------------------------------------------------------------||
||o-0---0-------0-0-----0-0-----0-0-----0-0-----0-0-----0-0-----0-0-----o||
||--0---0-------0-0-----0-0-----0-0-----0-0-----0-0-----0-0-----0-0------||



  PM--|       PM|     PM|     PM|     PM|     PM|     PM|     PM|
 S.. S..  E. E E  E. E E  E. E E  E. E E  E. E E  E. E E  E. E E  E.
|--------------------------------------------------------------------------|
|----------9------12-------9------15-------9------12-------9------15-------|
|---------12------15------12------18------12------15------12------18-------|
|--------------------------------------------------------------------------|
|-0---0-------0-0-----0-0-----0-0-----0-0-----0-0-----0-0-----0-0-----0-0--|
|-0---0-------0-0-----0-0-----0-0-----0-0-----0-0-----0-0-----0-0-----0-0--|



  PM--|       PM|     PM|     PM|     PM|     PM|     PM|     PM|
 S.. S..  E. E E  E. E E  E. E E  E. E E  E. E E  E. E E  E. E E  E.
|--------------------------------------------------------------------------|
|----------9------12-------9------15-------9------12-------9------15-------|
|---------12------15------12------18------12------15------12------18-------|
|--------------------------------------------------------------------------|
|-0---0-------0-0-----0-0-----0-0-----0-0-----0-0-----0-0-----0-0-----0-0--|
|-0---0-------0-0-----0-0-----0-0-----0-0-----0-0-----0-0-----0-0-----0-0--|






  W..        +W
|--------------------------------------------------|
|--------------------------------------------------|
|--------------------------------------------------|
|-0----------(0)-----------------------------------|
|-0----------(0)-----------------------------------|
|-0----------(0)-----------------------------------|
|
| W..         W       W        +H.        E Q..
|--------------------------------------------------|
|--------------------------------------------------|
|--------------------------------------------------|
|---------------------0--------(0)--------0--------|
|---------------------0--------(0)--------0--------|
|---------------------0--------(0)--------0--------|


PM----|       PM-------|                   PM-------|       PM-|
    E. S. S. S.S. S. S. S. S. S.S. S. S. S. S. S. S. S. S. S.S. S. E S.S.
||------------------------------------------------------------------------||
||o-----------------------------------------------------------------------||
||------------------------------------------------------------------------||
||-----------3h7--------------3h7--8h12--7h11--------------3h7--------3h7-||
||o-0--0--0-------0--0--0--0-------------------0--0--0--0-------0--0------||
||--0--0--0-------0--0--0--0-------------------0--0--0--0-------0--0------||
(Continued)

   S.S. S.S.. E
||--------------------||
||-------------------o||
||--------------------||
||-2h6--5h9--7--------||
||-------------------o||
||--------------------||


  H
|-----|
|-----|
|-----|
|-----|
|-----|
|-----|


PM----|       PM-------|                   PM-------|       PM-|
    E. E. E. E.E. E. E. E. E. E.E. E. E. E. E. E. E. E. E. E.E. E. E. E.E.
||------------------------------------------------------------------------||
||o-----------------------------------------------------------------------||
||------------------------------------------------------------------------||
||-----------3h7--------------3h7--8h12--7h11--------------3h7--------3h7-||
||o-0--0--0-------0--0--0--0-------------------0--0--0--0-------0--0------||
||--0--0--0-------0--0--0--0-------------------0--0--0--0-------0--0------||
(Continued)

   E.E. E.E. E.
||--------------------||
||-------------------o||
||--------------------||
||-2h6--5h9--7--------||
||-------------------o||
||--------------------||
|
|   PM-----|           PM----------|                      
||------------------------------------------------------------------||
||o-----------------------------------------------------------------||
||------------------------------------------------------------------||
||-------------3h7-------------------3h7---8h12---7h11--------------||
||o-0--0---0-----------0---0---0---0--------------------------------||
||--0--0---0-----------0---0---0---0--------------------------------||
(continued)
 PM---------|      PM--|
||----------------------------------------------||
||---------------------------------------------o||
||----------------------------------------------||
||-------------3h7-------3h7--2h6-----5h9---7---||
||-0--0--0--0-------0--0-----------------------o||
||-0--0--0--0-------0--0------------------------||


   H H W
|----------|
|----------|
|----------|
|-10-8-7---|
|----------|
|----------|
|
|  H H W
|----------|
|----------|
|----------|
|--5-3-2---|
|----------|
|----------|


    PM------------------|             PM------------------|
    E S. S. S. S. S.. E E  S. S. E.   E S. S. S. S. S.. E E  S. S. E.
||----------------------------------|---------------------------------|
||o---------------------------------|---------------------------------|
||----------------------------------|---------------------------------|
||-------------------------7--5-----|------------------------5--3--2--|
||o-0-0--0--0--0--0---0-0--------8--|-0-0--0--0--0--0---0-0-----------|
||--0-0--0--0--0--0---0-0-----------|-0-0--0--0--0--0---0-0-----------|


  PM------------------|
  E S. S. S. S. S.. E E  S. S. E.   Q  Q E. Q Q
|---------------------------------|----------------||
|---------------------------------|---------------o||
|---------------------------------|----------------||
|------------------------7--5-----|---10------7----||
|-0-0--0--0--0--0---0-0--------8--|-8-------5-----o||
|-0-0--0--0--0--0---0-0-----------|-8----8--5------||


    PM------------------|               PM------------------|
    E S. S. S. S. S.. E E  S. S..  E.   E S. S. S. S. S.. E E S. S.. E.
||------------------------------------|---------------------------------|
||o-----------------------------------|---------------------------------|
||------------------------------------|---------------------------------|
||-------------------------7--5-------|-----------------------5--3---2--|
||o-0-0--0--0--0--0---0-0----------8--|-0-0--0--0--0--0---0-0-----------|
||--0-0--0--0--0--0---0-0-------------|-0-0--0--0--0--0---0-0-----------|
|
|   PM------------------|               PM------------------|
|   E S. S. S. S. S.. E E  S. S..  E.   E S. S. S. S. S.. E E S. S.. E.
||------------------------------------|---------------------------------|
||o-----------------------------------|---------------------------------|
||------------------------------------|---------------------------------|
||------------------------10--8-------|-----------------------8--7---5--|
||o-0-0--0--0--0--0---0-0---------12--|-0-0--0--0--0--0---0-0-----------|
||--0-0--0--0--0--0---0-0-------------|-0-0--0--0--0--0---0-0-----------|


  PM------------------|
  E S. S. S. S. S.. E E  S. S..  E   Q  Q   E. Q  Q
|----------------------------------|------------------||---|
|----------------------------------|-----------------o||---|
|----------------------------------|------------------||---|
|------------------------7--5------|---10---------7---||---|
|-0-0--0--0--0--0---0-0----------8-|-8---------5-----o||---|
|-0-0--0--0--0--0---0-0------------|-8------8--5------||---|
|
| PM------------------|
| E S. S. S. S. S.. E E  S. S..  E   Q +Q  +E. Q +Q      X
|----------------------------------|------------------||---|
|----------------------------------|-----------------o||---|
|----------------------------------|------------------||---|
|-----------------------10--8------|------------------||-0-|
|-0-0--0--0--0--0---0-0---------12-|-8-(8)-(8)-5-(5)-o||-0-|
|-0-0--0--0--0--0---0-0------------|-8-(8)-(8)-5-(5)--||-0-|


    PM----|       PM-------|                   PM-------|       PM-|
    E. E. E. E.E. E. E. E. E. E.E. E. E. E. E. E. E. E. E. E.E. E. E. E.E.
||------------------------------------------------------------------------||
||o-----------------------------------------------------------------------||
||------------------------------------------------------------------------||
||-----------3h7--------------3h7--8h12--7h11--------------3h7--------3h7-||
||o-0--0--0-------0--0--0--0-------------------0--0--0--0-------0--0------||
||--0--0--0-------0--0--0--0-------------------0--0--0--0-------0--0------||
(Continued)

   E.E. E.E. E.
||--------------------||
||-------------------o||
||--------------------||
||-2h6--5h9--7--------||
||-------------------o||
||--------------------||
|
|   +W                      +W                      +H..
||------------------------------------------------------------------------||
||o----------------------------------------------------------------------o||
||------------------------------------------------------------------------||
||--(0)---------------------(0)---------------------(0)-------------------||
||o-(0)---------------------(0)---------------------(0)------------------o||
||--(0)---------------------(0)---------------------(0)-------------------||


 PM----|       PM-------|                   PM-------|       PM-|
    E. E. E. E.E. E. E. E. E. E.E. E. E. E. E. E. E. E. E. E.E. E. E. E.E.
||------------------------------------------------------------------------||
||o-----------------------------------------------------------------------||
||------------------------------------------------------------------------||
||-----------3h7--------------3h7--8h12--7h11--------------3h7--------3h7-||
||o-0--0--0-------0--0--0--0-------------------0--0--0--0-------0--0------||
||--0--0--0-------0--0--0--0-------------------0--0--0--0-------0--0------||
(Continued)

   E.E. E.E. E.
||--------------------||
||-------------------o||
||--------------------||
||-2h6--5h9--7--------||
||-------------------o||
||--------------------||


    PM----|       PM-------|                   PM-------|       PM-|
    E. E. E. E.E. E. E. E. E. E.E. E. E. E. E. E. E. E. E. E.E. E. E. E.E. E.E. E.E. E.E.
||------------------------------------------------------------------------||
||o-----------------------------------------------------------------------||
||------------------------------------------------------------------------||
||-----------3h7--------------3h7--8h12--7h11--------------3h7--------3h7-||
||o-0--0--0-------0--0--0--0-------------------0--0--0--0-------0--0------||
||--0--0--0-------0--0--0--0-------------------0--0--0--0-------0--0------||
(Continued)
   E.E. E.E. E.E.
||--------------------||
||-------------------o||
||--------------------||
||-2h6--5h9--3h7------||
||-------------------o||
||--------------------||



  PM--------------------------------------------------|
  E E E E E E E E  E  E H. E E E E E  E   E E E E Q E E Q
|------------------------------------------------------------|
|------------------------------------------------------------|
|------------------------------------------------------------|
|------------------------------------------------------------|
|-1-4-3-1-4-3-1-4--0--0----1-4-3-1-4--3---1-4-0-0---0-0------|
|-1-4-3-1-4-3-1-4--0--0----1-4-3-1-4--3---1-4-0-0---0-0------|
|
|                                             PM------|
| W               +W                 +H..     Q E Q E E
|------------------------------------------------------------|
|------------------------------------------------------------|
|------------------------------------------------------------|
|------------------------------------------------------------|
|-0---------------(0)----------------(0)------0-0---0-0------|
|-0---------------(0)----------------(0)------0-0---0-0------|


    PM---------------------------------------------|
    E E E E E E E E E E H. E E E E E E E E E E Q E E         Q   6x
||---------------------------------------------------------------||
||o-------------------------------------------------------------o||
||---------------------------------------------------------------||
||---------------------------------------------------------------||
||o-1-4-3-1-4-3-1-4-0-0----1-4-3-1-4-3-1-4-0-0---0-0------------o||
||--1-4-3-1-4-3-1-4-0-0----1-4-3-1-4-3-1-4-0-0---0-0-------------||
|
|   PM---------------------------------------------|
|   E E E E E E E E E E H. E E E E E E E E E E Q E E         Q   6x
||---------------------------------------------------------------||
||o-------------------------------------------------------------o||
||---------------------------------------------------------------||
||---------------------------------------------------------------||
||o-1-4-3-1-4-3-1-4-0-0----1-4-3-1-4-3-1-4-0-0---0-0------------o||
||--1-4-3-1-4-3-1-4-0-0----1-4-3-1-4-3-1-4-0-0---0-0-------------||




----------------------------------------------------------------------------


Duration Legend
---------------
W - whole; H - half; Q - quarter; E - 8th; S - 16th; T - 32nd; X - 64th; a - acciaccatura
+ - note tied to previous; . - note dotted; .. - note double dotted
Uncapitalized letters represent notes that are staccato (1/2 duration)
Irregular groupings are notated above the duration line
Duration letters will always appear directly above the note/fret number it represents the
duration for.  Duration letters with no fret number below them represent rests.  Multi-
bar rests are notated in the form Wxn, where n is the number of bars to rest for.  Low
melody durations appear below the staff

Tablature Legend
----------------
 h   - hammer-on
 p   - pull-off
 b   - bend
 pb  - pre-bend
 r   - bend release (if no number after the r, then release immediately)
 /\  - slide into or out of (from/to "nowhere")
 s   - legato slide
 S   - shift slide
 - natural harmonic
[n]  - artificial harmonic
n(n) - tapped harmonic
 ~   - vibrato
 tr  - trill
 T   - tap
 TP  - trem. picking
 PM  - palm muting
\n/  - tremolo bar dip; n = amount to dip
 \n  - tremolo bar down
 n/  - tremolo bar up
/n\  - tremolo bar inverted dip
 =   - hold bend; also acts as connecting device for hammers/pulls
 <> - volume swell (louder/softer)
 x   - on rhythm slash represents muted slash
 o   - on rhythm slash represents single note slash

Misc Legend
-----------
 |  - bar
||  - double bar
||o - repeat start
o|| - repeat end
*|  - double bar (ending)
 :  - bar (freetime)
 $  - Segno
 &  - Coda
Tempo markers -  = BPM(8/16=s8/s16), where s8 = swing 8ths, s16 = swing 16ths
Tap to rate this tab
# A B C D E F G H I J K L M N O P Q R S T U V W X Y Z