Song name
# A B C D E F G H I J K L M N O P Q R S T U V W X Y Z

Bring Me The Horizon - This Is What The Edge Of Your Seat Was Made For tab

==========================================================================================

                                    BRING ME THE HORIZON
                       THIS IS WHAT THE EDGE OF YOUR SEAT WAS MADE FOR

==========================================================================================

Album Track Listing:
01.) RE: They Have No Reflections (wolfe04)
02.) Who Wants Flowers When You're Dead? Nobody (not tabbed yet)
03.) Rawwwrr! (Zedzeppelin@1)
04.) Traitors Never Play Hangman (handsofblood)

-----------------------------------------------------------------------------------------

Album Tab Info:
None of these songs were tabbed by me.
I took the tabs I could find and then I edited them.
So they were easier to read and to understand.
The usernames of the original tabbers are next to the songs they
tabbed in brackets.

------------------------------------------------------------------------------------------

Tab Legend:
PM = Palm mute
/  = Slide up
\  = Slide down
[] = Pinch harmonic
t  = Tremolo pick
() = Ghost note
p  = Pull-off
h  = Hammer-on
v  = Vibrato
~  = Let note ring

------------------------------------------------------------------------------------------

01.) RE: They Have No Reflections

Tuning: Drop C (C G C F A D)

Intro:
D]--------16-16-------16-16-----------16-16-------16-16--------16--16--16--16--|
A]--------20-20-------20-20-----------20-20-------20-20--------20--20--20--20--|
F]-----------------------------------------------------------------------------|
C]-----------------------------------------------------------------------------|
G]--0-0-0-------0-0-0-------0-0-0-0-0-------0-0-0-------0-0-0------------------|
C]--0-0-0-------0-0-0-------0-0-0-0-0-------0-0-0-------0-0-0------------------|
PM  . . .       . . .       . . . . .       . . .       . . .


Verse 1 Part 1: 
"And I've been dragging the lake."
  Guitar 1
D]-------------------------------|      |----16-16---16-16--|
A]-------------------------------|      |----20-20---20-20--|
F]--(8p0-7p0-8p0-11p0-10p0-8p0)--| x3   |-------------------| x4
C]-------------------------------| then |-------------------| the whole
G]-------------------------------| play |--0-------0--------| thing
C]-------------------------------|      |--0-------0--------|
PM                                         .       .

  Guitar 2
D]----------------------------16-16---16-16--|
A]----------------------------20-20---20-20--|
F]-------------------------------------------| x4
C]-------------------------------------------|
G]--0-0-0-------0-0-0-------0-------0--------|
C]--0-0-0-------0-0-0-------0-------0--------|
PM  . . .       . . .       .       .


Verse 1 Part 2:
"Where you belong."
  Guitar 1
D]----------------------------16-16---16-16--|
A]----------------------------20-20---20-20--|
F]-------------------------------------------| x2
C]-------------------------------------------|
G]--------------------------0-------0--------|
C]--------------------------0-------0--------|
PM                          .       .

  Guitar 2
D]----------------------------16-16---16-16--|
A]----------------------------20-20---20-20--|
F]-------------------------------------------| x2
C]-------------------------------------------|
G]--0-0-0-------0-0-0-------0-------0--------|
C]--0-0-0-------0-0-0-------0-------0--------|
PM  . . .       . . .       .       .


Verse 1 Part 3:
  Guitar 1
D]-------------------------------|      |----16-16---16-16--|
A]-------------------------------|      |----20-20---20-20--|
F]--(8p0-7p0-8p0-11p0-10p0-8p0)--| x3   |-------------------| x2
C]-------------------------------| then |-------------------| the whole
G]-------------------------------| play |--0-------0--------| thing
C]-------------------------------|      |--0-------0--------|
PM                                         .       .

  Guitar 2
D]----------------------------16-16---16-16--|
A]----------------------------20-20---20-20--|
F]-------------------------------------------| x2
C]-------------------------------------------|
G]--0-0-0-------0-0-0-------0-------0--------|
C]--0-0-0-------0-0-0-------0-------0--------|
PM  . . .       . . .       .       .


Fill 1:
  Guitar 1 + 2
D]---------------------------------------|
A]---------------------------------------|
F]-----2h3p2------------2h3p2------------| x2
C]---------------5----------------5--2v--|
G]--0---------1-------0--------1---------|
C]--0-----------------0------------------|
PM  .                 .


Verse 2:
"I don't know what they said."
  Guitar 1 + 2
D]------------------------------------------------------|
A]------------------------------------------------------|
F]------------------------------------------------------| x2
C]-----7t-5t-3t-7t-5t-3t-5t-----8t-10t-7t-----7t-8t-5t--|
G]--5---------------------------------------------------|
C]---------------------------8-------------7------------|


"Left me for dead!"
  Guitar 1 + 2
D]---------------------------------------------------|
A]---------------------------------------------------|
F]---------------------------------------------------| x4
C]-----------7t-5t-3t-5t-----8t-10t-7t-----7t-8t-5t--|
G]--0-0-0-0------------------------------------------|
C]--0-0-0-0---------------8-------------7------------|
PM  . . . .

D]-------------------------------------------------|
A]-------------------------------------------------|
F]-------------------------------------------------|
C]-------------------------------------------------|
G]--0-0-0-0-0-0-0-0-0-0-0-0-0-0-0-0-0-0-0-0-0-0-0--|
C]--0-0-0-0-0-0-0-0-0-0-0-0-0-0-0-0-0-0-0-0-0-0-0--|
PM  . . . . . . . . . . . . . . . . . . . . . . .


Interlude 1:
  Guitar 1 + 2
D]---------------------------|    |-----------------------------------------|
A]---------------------------|    |-----------------------------------------|
F]---------------------------| x3 |-----------------------------------------|
C]---------------------------|    |-----------------------------------------|
G]--0-0-0-0---0---0-0-0-0-0--|    |--0-0-0-0--000-000-000-000--0-3-2-0-3-2--|
C]--0-0-0-0---0---0-0-0-0-0--|    |--0-0-0-0--000-000-000-000--0-3-2-0-3-2--|
PM  . . . .   .   . . . . .          . . . .  ... ... ... ...  . . . . . .


Verse 3:
"And when I'm done."
  Guitar 1 + 2
D]--------------------------------------------------|
A]--------------------------------------------------|
F]--------------------------------------------------|
C]-----7t-5t-3t-7t-5t-3t-5t---7t-5t-3t-7t-5t-3t-5t--|
G]--5t----------------------------------------------|
C]--------------------------------------------------|

D]--------------------------------------------------|
A]------------------------10t-8t-6t-8t-6t-5t-6t-5t--|
F]-----------------9t-7t----------------------------|
C]--7t-5t-3t-7t-5t----------------------------------|
G]--------------------------------------------------|
C]--------------------------------------------------|


Breakdown:
  Guitar 1 + 2
D]---------------------------------------------------------|
A]---------------------------------------------------------|
F]---------------------------------------------------------|
C]---------------------------------------------------------|
G]-0-5-3-2-1~------------0-5-3-2-1~------------0-5-3-2-1~--|
C]-0-5-3-2-1~------------0-5-3-2-1~------------0-5-3-2-1~--|
PM . . . .               . . . .               . . . .


Verse 4:
"Nail the casket one more time."
  Guitar 1 + 2
D]-----------------------------------|
A]-----------14---------------14/16--|
F]-----------17---------------17/19--| x4
C]-----------------------------------|
G]--0-1-0-0------0-1-0-1-0-0---------|
C]--0-1-0-0------0-1-0-1-0-0---------|
PM  . . . .      . . . . . .


Then some little fill thing is played here.
It's kinda hard to hear and workout.
So I couldn't put it up. Sorry


  Guitar 1 + 2
D]-----------------------------------|
A]-----------14---------------14/16--|
F]-----------17---------------17/19--| x4
C]-----------------------------------|
G]--0-1-0-0------0-1-0-1-0-0---------|
C]--0-1-0-0------0-1-0-1-0-0---------|
PM  . . . .      . . . . . .


D]------------------------------------|
A]------------------------------------|
F]------------------------------------|
C]------------------------------------|
G]--0-3-2-1-0~------------0-3-2-1-0~--|
C]--0-3-2-1-0~------------0-3-2-1-0~--|
PM  . . . .               . . . .


Verse 5:
"Twist the knife. It won't last forever."
D]------------------------------------|
A]------------------------------------|
F]------------------------------------|
C]------------------------------------|
G]--0-3-2-1-0~------------0-3-2-1-0~--|
C]--0-3-2-1-0~------------0-3-2-1-0~--|
PM  . . . .               . . . .


"Twist the knife. It won't hurt."
D]-------------------------------------------|
A]-----------[8]\-----------[8]\-------[8]\--|
F]-----------[7]\-----------[7]\-------[7]\--| x4
C]-------------------------------------------|
G]--0-3-2-0--------0-3-2-0--------0-0--------|
C]--0-3-2-0--------0-3-2-0--------0-0--------|
PM  . . . .        . . . .        . .


Interlude 2:
  Guitar 1 + 2
D]------------------------------------------------------------------------------------|
A]------------------------------------------------------------------------------------|
F]--8-7------------------------------------8-7----------------------------------------|
C]--8-7-------------------8-7-5h7p5--------8-7----------------------------------------|
G]--6-5---------------5-6-----------7p5----6-5---------------5h6p5h6p5h6-7h8p7h8p7h8--|
C]-------0-0-000-0-0----------------------------0-0-000-0-0---------------------------|
PM       . . ... . .                            . . ... . .

E]----------------------------------------------------------------------|
B]----------------------------------------------------------------------|
G]--8-7------------------------------------8-7--------------------------|
D]--8-7-------------------8-7-5h7p5--------8-7--------------------------|
A]--6-5---------------5-6-----------7p5----6-5---------------5-5---7-7--|
C]-------0-0-000-0-0----------------------------0-0-000-0-0--5-5---7-7--|
PM       . . ... . .                            . . ... . .  . .   . .

D]------------------------------------------------------------------------------------|
A]------------------------------------------------------------------------------------|
F]--8-7------------------------------------8-7----------------------------------------| x4
C]--8-7-------------------8-7-5h7p5--------8-7----------------------------------------|
G]--6-5---------------5-6-----------7p5----6-5---------------5h6p5h6p5h6-7h8p7h8p7h8--|
C]-------0-0-000-0-0----------------------------0-0-000-0-0---------------------------|
PM       . . ... . .                            . . ... . .


Verse 5:
"Do not change the subject."
  Guitar 1 +2
D]--------------------------------------------|
A]--------------------------------------------|
F]--------------------------------------------| x2
C]--------------------------------------------|
G]--0000-00-00-0000--5h6p5h6p5h6-7h8p7h8p7h8--|
C]--0000-00-00-0000---------------------------|
PM  .... .. .. ....

D]--------------------------------------|
A]--------------------------------------|
F]--------------------------------------| x4
C]----5t-3t-2t-3t-2t----5-7-8----7-8-5--|
G]--5-----------------------------------|
C]--------------------5--------7--------|

D]-------------------|
A]-------------------|
F]-------------------|
C]-------------------|
G]--0--3--0---5-3-2--|
C]--0--3--0---5-3-2--|


Bridge Part 1:
"Forever, it won't last forever."
  Guitar 1
D]------------------------------------------------|
A]------------------------------------------------|
F]------------------------------------------------|
C]--(Silent for a bit while guitar 2 is playing)--|
G]------------------------------------------------|
C]------------------------------------------------|

  Guitar 2
D]-------------------|
A]-------------------|
F]-------------------| x2
C]-------------------|
G]--0--3--0---5-3-2--|
C]--0--3--0---5-3-2--|


Bridge Part 2:
"So nail the casket."
  Guitar 1
D]---------------|    |---------------------|
A]---------------|    |---------------------|
F]---------------| x2 |---------------------|
C]--7-----8-7-5--|    |--7-----8-7-5-7-5-2--|
G]---------------|    |---------------------|
C]---------------|    |---------------------|

  Guitar 2
D]-------------------|
A]-------------------|
F]-------------------| x3
C]-------------------|
G]--0--3--0---5-3-2--|
C]--0--3--0---5-3-2--|


Interlude 2:
  Guitar 1 + 2
D]-------------------------------------------------------|
A]-------------------------------------------------------|
F]-------------------------------------------------------| x2
C]-----------------1\0-----0-----------------------------|
G]--0-1-3-000---3-------2-----[2]--000-000----0--1--(1)--|
C]--0-1-3-000----------------------000-000----0--1--(1)--|
PM  . . . ...   .  . .  .  .   .   ... ...    .  .   .


Outro:
"I hate all my... friends."
  Guitar 1 + 2
D]-------------------------------------------------------|
A]-------------------------------------------------------|
F]-------------------------------------------------------| x9
C]-----------------1\0-----0-----------------------------|
G]--0-1-3-000---3-------2-----[2]--000-000----0--1--(1)--|
C]--0-1-3-000----------------------000-000----0--1--(1)--|
PM  . . . ...   .  . .  .  .   .   ... ...    .  .   .

------------------------------------------------------------------------------------------

02.) Who Wants Flowers When You're Dead? Nobody.


THERE IS NO TAB AVAILABLE FOR THIS SONG YET.
IF YOU HAVE ANYTHING FOR THIS SONG EITHER E-MAIL ME.
OR LEAVE IT IN A COMMENT OR SOMETHING.
THANKS A LOT!

------------------------------------------------------------------------------------------

03.) Rawwwrr!

Tuning: Drop C (C G C F A D)


Intro:
  Guitar 1
D]--------------------------------------------------------------------|
A]------14-13---14-13---14-14-14-14------14-13---14-13---14-14-14-14--|
F]------17-16---17-16---17-17-17-17------17-16---17-16---17-17-17-17--|
C]--------------------------------------------------------------------|
G]--0-0-------0-------0--------------0-0-------0-------0--------------|
C]--0-0-------0-------0--------------0-0-------0-------0--------------|
PM  . .       .       .              . .       .       .


  Guitar 1
D]--------------------------------------------------------------------|
A]------14-13---14-13---14-14-14-14------14-13---14-13---14-14-14-14--|
F]------17-16---17-16---17-17-17-17------17-16---17-16---17-17-17-17--|
C]--------------------------------------------------------------------|
G]--0-0-------0-------0--------------0-0-------0-------0--------------|
C]--0-0-------0-------0--------------0-0-------0-------0--------------|
PM  . .       .       .              . .       .       .

  Guitar 2
D]------|
A]------|
F]------|
C]--0~--|
G]--0~--|
C]--0~--|


Intro Part 2:
  Guitar 1 + 2
D]--------------------------------|    |----------------------|
A]----------14---------14-----14--|    |----------14----------|
F]----------17---------17-----17--| x3 |----------17----------|
C]--------------------------------|    |----------------------|
G]--0-0-0-0----0-0-0-0----0-0-----|    |--0-0-0-0----0-0-0-0--|
C]--0-0-0-0----0-0-0-0----0-0-----|    |--0-0-0-0----0-0-0-0--|
PM  . . . .    . . . .    . .             . . . .    . . . .

  Guitar 1 + 2
D]-------------------------------|
A]----------14---------14-----14-|
F]----------17---------17-----17-| x4
C]-------------------------------|
G]--0-0-0-0----0-0-0-0----0-0----|
C]--0-0-0-0----0-0-0-0----0-0----|
PM  . . . .    . . . .    . .

  Guitar 1 + 2
D]------------------------------------|
A]------14-13---14-13---14-14-14-14~--|
F]------17-16---17-16---17-17-17-17~--|
C]------------------------------------|
G]--0-0-------0-------0---------------|
C]--0-0-------0-------0---------------|
PM  . .       .       .


Verse 1 Part 1:
"Take it back, what you stole from me."
  Guitar 1 + 2
D]--------------------------------------|    |--------|
A]--------------------------------------|    |--------|
F]---------------------------------17v--| x2 |--------|
C]--------------------------------------|    |--------|
G]--0-0-0-0-----0-0-0-0-----0-0-0-------|    |--0--0--|
C]--0-0-0-0-----0-0-0-0-----0-0-0-------|    |--0--0--|
PM  . . . .     . . . .     . . .               .  .

D]--------------------------------------|    |--------|
A]--------------------------------------|    |--------|
F]---------------------------------17v--| x2 |--------|
C]--------------------------------------|    |--------|
G]--0-0-0-0-----0-0-0-0-----0-0-0-------|    |--0--0--|
C]--0-0-0-0-----0-0-0-0-----0-0-0-------|    |--0--0--|
PM  . . . .     . . . .     . . .               .  .


Verse 1 Part 2:
  Guitar 1
D]--------------------------------------|    |--------|
A]--------------------------------------|    |--------|
F]---------------------------------17v--| x2 |--------|
C]--------------------------------------|    |--------|
G]--0-0-0-0-----0-0-0-0-----0-0-0-------|    |--0--0--|
C]--0-0-0-0-----0-0-0-0-----0-0-0-------|    |--0--0--|
PM  . . . .     . . . .     . . .               .  .

  Guitar 2
D]------------------------------------------|    |---------|
A]--14-14-14-14-14-14-14-14-14-14-14-14-14--|    |--14-14--|
F]--17-17-17-17-17-17-17-17-17-17-17-17-17--| x2 |--17-17--|
C]------------------------------------------|    |---------|
G]------------------------------------------|    |---------|
C]------------------------------------------|    |---------|


Interlude:
  Guitar 1 + 2
D]--------------------------------------------------------------------|
A]--------------------------------------------------------------------|
F]--------------------------------------------------------------------| x2
C]--------------------------------------------------------------------|
G]--0-2-3-0-3-2-0-2-0-0--0-2-3-0-3-2-0-2-0-0-2-3-0-3-2-0-2--0-0--0-0--|
C]--0-2-3-0-3-2-0-2-0-0--0-2-3-0-3-2-0-2-0-0-2-3-0-3-2-0-2--0-0--0-0--|
PM  . . . . . . . . . .  . . . . . . . . . . . . . . . . .  . .  . .

D]------------------------------------------------------------------------------|
A]------------------------------------------------------------------------------|
F]------------------------------------------------------------------------------|
C]------------------------------------------------------------------------------|
G]--0-2-3-0-3-2-0-2-0-0--0-2-3-0-3-2-0-2-0-0-2-3-0-3-2-0-2--0-0--0-0--0-0--0-0--|
C]--0-2-3-0-3-2-0-2-0-0--0-2-3-0-3-2-0-2-0-0-2-3-0-3-2-0-2--0-0--0-0--0-0--0-0--|
PM  . . . . . . . . . .  . . . . . . . . . . . . . . . . .  . .  . .  . .  . .

D]--------------------------------------|
A]-------13-------13-------13-------13--|
F]-------17-------17-------17-------17--| x4
C]--------------------------------------|
G]--0-0------0-0------0-0------0-0------|
C]--0-0------0-0------0-0------0-0------|
    . .      . .      . .      . .


THE REST OF THE SONG HASN'T BEEN FIGURED OUT JUST YET.
IF YOU HAVE ANYTHING ELSE OF IT DONE.
THEN LEAVE A COMMENT OR AN E-MAIL WITH WHAT YOU'VE GOT.

------------------------------------------------------------------------------------------

03.) Traitors Never Play Hangman

Tuning: Drop B (B F# B E G# C#)

Verse 1:
   Guitar 1 + 2
C#]---------------------------------------------|
G#]---------------------------------------------|
E ]---------------------------------------------|
B ]-----------0-------6h9p6h9p6h9--5h8p5h8p5h8--|
F#]--0-0-0-0--0---------------------------------|
B ]--0-0-0-0--0--0-0----------------------------|
PM   . . . .     . .

C#]----------------------------------------------|
G#]----------------------------------------------|
E ]--------------------------------------7-8-10--|
B ]-----------0-------------5-7-8-7-8-10---------|
F#]--0-0-0-0--0-------5-7-8----------------------|
B ]--0-0-0-0--0--0-0-----------------------------|
PM   . . . .     . .

C#]---------------------------------------------|
G#]---------------------------------------------|
E ]---------------------------------------------|
B ]-----------0-------6h9p6h9p6h9--5h8p5h8p5h8--|
F#]--0-0-0-0--0---------------------------------|
B ]--0-0-0-0--0--0-0----------------------------|
PM   . . . .     . .

C#]--------------------------------------------------|
G#]--------------------------------------------------|
E ]----------------------------------8-10-12-10-8-7--|
B ]-----------0--------------8-10-12-----------------|
F#]--0-0-0-0--0-------7-8-10-------------------------|
B ]--0-0-0-0--0--0-0---------------------------------|
PM   . . . .     . .

(Repeat the whole thing again)


Verse 1 Fill:
   Guitar 1 + 2
C#]--------------------|
G#]--------------------|
E ]--------------------|
B ]--5h8p5h8p5h8p5h8~--|
F#]--------------------|
B ]--------------------|


Verse 2: x2
   Guitar 1 + 2
C#]---------------------------------------------|
G#]---------------------------------------------|
E ]---------------------------------------------|
B ]-----------0-------6h9p6h9p6h9--5h8p5h8p5h8--|
F#]--0-0-0-0--0---------------------------------|
B ]--0-0-0-0--0--0-0----------------------------|
PM   . . . .     . .

C#]-------------------------|
G#]-------------------------|
E ]-------------------[12]--|
B ]-----------0-------------|
F#]--0-0-0-0--0-------------|
B ]--0-0-0-0--0--0-0--------|
PM   . . . .     . .

C#]---------------------------------------------|
G#]---------------------------------------------|
E ]---------------------------------------------|
B ]-----------0-------6h9p6h9p6h9--5h8p5h8p5h8--|
F#]--0-0-0-0--0---------------------------------|
B ]--0-0-0-0--0--0-0----------------------------|
PM   . . . .     . .

C#]-------------------------------------------------|
G#]-------------------------------------------------|
E ]----------------------------------8-10-12-[12]/--|
B ]-----------0--------------8-10-12----------------|
F#]--0-0-0-0--0-------7-8-10------------------------|
B ]--0-0-0-0--0--0-0--------------------------------|
PM   . . . .     . .


Verse 2 Fill:
   Guitar 1 + 2
C#]---------------------|
G#]----13/12-----13/12--|
E ]----16/15-----16/15--|
B ]---------------------|
F#]--0---------0--------|
B ]--0---------0--------|
PM   .         .


Interlude:
   Guitar 1 + 2
C#]----------------------------------|
G#]-----------17-17-17----------15\--|
E ]-----------20-20-20----------18\--|
B ]----------------------------------| x4
F#]--0-0-0--0----------0-0-0--0------|
B ]--0-0-0--0----------0-0-0--0------|
PM   . . .  .          . . .  .


Bridge:
   Guitar 1
C#]----------------------------------------------------------------------|
G#]----------------------------------------------------------------------|
E ]----------------------------------------------------------------------|
B ]-------------------------------------------10-8-7--------8-7-5--------| x2
F#]----------------7-7-7--8-8-8----------------------10-8-7-------8-7-5--|
B ]--0-0-0--0-0-0----------------0-0-0--0-0-0----------------------------|
PM   . . .  . . .                . . .  . . .

   Guitar 2
C#]----------------------------------------------------------------------|
G#]----------------------------------------------------------------------|
E ]----------------------------------------------------------------------|
B ]-------------------------------------------10-8-7--------8-7-5--------|
F#]----------------7-7-7--8-8-8----------------------10-8-7-------8-7-5--|
B ]--0-0-0--0-0-0----------------0-0-0--0-0-0----------------------------|
PM   . . .  . . .                . . .  . . .

C#]-------------------------------------------------------------------------|
G#]-------------------------------------------------------------------------|
E ]-------------------------------------------------------------------------|
B ]----------------------------------------------10-8-7--------8-7-5--------|
F#]----------------9-9-9--10-10-10----------------------10-8-7-------8-7-5--|
B ]--0-0-0--0-0-0-------------------0-0-0--0-0-0----------------------------|
PM   . . .  . . .                   . . .  . . .

C#]-------------------|
G#]-------------------|
E ]-------------------|
B ]--8~-----5~-----0--|
F#]--8~-----5~-----0--|
B ]--8~-----5~-----0--|
PM                 .

"Forsaken!"


Spoken Bridge:
   Guitar 1
C#]---------------------------------------------------------|
G#]---------------------------------------------------------|
E ]---------------------------------------------------------|
B ]-------------------------------------------10-8-7--------| x2
F#]----------------7-7-7--8-8-8----------------------8-7-5--|
B ]--0-0-0--0-0-0----------------0-0-0--0-0-0---------------|
PM   . . .  . . .                . . .  . . .

   Guitar 2
C#]---------------------------------------------------------|
G#]---------------------------------------------------------|
E ]---------------------------------------------------------|
B ]-------------------------------------------10-8-7--------|
F#]----------------7-7-7--8-8-8----------------------8-7-5--|
B ]--0-0-0--0-0-0----------------0-0-0--0-0-0---------------|
PM   . . .  . . .                . . .  . . .

C#]------------------------------------------------------------|
G#]------------------------------------------------------------|
E ]------------------------------------------------------------|
B ]----------------------------------------------10-8-7--------|
F#]----------------9-9-9--10-10-10----------------------8-7-5--|
B ]--0-0-0--0-0-0-------------------0-0-0--0-0-0---------------|
PM   . . .  . . .                   . . .  . . .

   Guitar 1 + 2
C#]-------------|
G#]-------------|
E ]-------------|
B ]--8~-----5~--|
F#]--8~-----5~--|
B ]--8~-----5~--|

   Guitar 1
C#]---------------------------------------------------------|
G#]---------------------------------------------------------|
E ]---------------------------------------------------------|
B ]-------------------------------------------10-8-7--------| x2
F#]----------------7-7-7--8-8-8----------------------8-7-5--|
B ]--0-0-0--0-0-0----------------0-0-0--0-0-0---------------|
PM   . . .  . . .                . . .  . . .

   Guitar 2
C#]---------------------------------------------------------|
G#]---------------------------------------------------------|
E ]---------------------------------------------------------|
B ]-------------------------------------------10-8-7--------|
F#]----------------7-7-7--8-8-8----------------------8-7-5--|
B ]--0-0-0--0-0-0----------------0-0-0--0-0-0---------------|
PM   . . .  . . .                . . .  . . .

C#]------------------------------------------------------------|
G#]------------------------------------------------------------|
E ]------------------------------------------------------------|
B ]----------------------------------------------10-8-7--------|
F#]----------------9-9-9--10-10-10----------------------8-7-5--|
B ]--0-0-0--0-0-0-------------------0-0-0--0-0-0---------------|
PM   . . .  . . .                   . . .  . . .

C#]-------------------|
G#]-------------------|
E ]-------------------|
B ]--8~-----5~-----0--|
F#]--8~-----5~-----0--|
B ]--8~-----5~-----0--|
PM                 .

"Forsaken!"


Breakdown:
   Guitar 1 + 2
C#]----------------------------|
G#]----------------------------|
E ]----------------------------|
B ]----------------------------| x4
F#]--0-0-0-0-0-0----0-0-0-0-0--|
B ]--0-0-0-0-0-0----0-0-0-0-0--|
PM   . . . . . .    . . . . .

C#]---------------------------------|
G#]---------------------------------|
E ]---------------------------------|
B ]------------------1-0-------1-0--| x4
F#]--0-0-0-0-0---0-0-1-0---0-0-1-0--|
B ]--0-0-0-0-0---0-0-1-0---0-0-1-0--|
PM   . . . . .   . .       . .

C#]---------------------------------------------|
G#]---------------------------------------------|
E ]---------------------------------------------|
B ]--0--0-0-0--0--0-0-0--0--0-0-0--0--0-0-0--0--|
F#]--0--0-0-0--0--0-0-0--0--0-0-0--0--0-0-0--0--|
B ]--0--0-0-0--0--0-0-0--0--0-0-0--0--0-0-0--0--|
PM   .  . . .  .  . . .  .  . . .  .  . . .  .

"And I'm speaking these words"

C#]------------------------------------------|
G#]------------------------------------------|
E ]------------------------------------------|
B ]--0--0-0-0--0--0-0-0--0--0-0-0--0--0-0-0--|
F#]--0--0-0-0--0--0-0-0--0--0-0-0--0--0-0-0--|
B ]--0--0-0-0--0--0-0-0--0--0-0-0--0--0-0-0--|
PM   .  . . .  .  . . .  .  . . .  .  . . .

C#]---------------------------------------------|
G#]---------------------------------------------|
E ]---------------------------------------------|
B ]--0--0-0-0--0--0-0-0--0--0-0-0--0--0-0-0--0--|
F#]--0--0-0-0--0--0-0-0--0--0-0-0--0--0-0-0--0--|
B ]--0--0-0-0--0--0-0-0--0--0-0-0--0--0-0-0--0--|
PM   .  . . .  .  . . .  .  . . .  .  . . .  .

"And I'm talking to the mirror"

C#]------------------------------------------|
G#]------------------------------------------|
E ]------------------------------------------|
B ]--0--0-0-0--0--0-0-0--0--0-0-0--0--0-0-0--|
F#]--0--0-0-0--0--0-0-0--0--0-0-0--0--0-0-0--|
B ]--0--0-0-0--0--0-0-0--0--0-0-0--0--0-0-0--|
PM   .  . . .  .  . . .  .  . . .  .  . . .

C#]---------------------------------------------|
G#]---------------------------------------------|
E ]---------------------------------------------|
B ]--0--0-0-0--0--0-0-0--0--0-0-0--0--0-0-0--0--|
F#]--0--0-0-0--0--0-0-0--0--0-0-0--0--0-0-0--0--|
B ]--0--0-0-0--0--0-0-0--0--0-0-0--0--0-0-0--0--|
PM   .  . . .  .  . . .  .  . . .  .  . . .  .


Outro:
   Guitar 1 + 2
C#]-----------------------------------------------------|
G#]--------------------12-12---------------------17-17--|
E ]--------------------15-15---------------------20-20--|
B ]-----------0-------------------------0---------------| x2
F#]--0-0-0-0--0--0-0-----------0-0-0-0--0--0-0----------|
B ]--0-0-0-0--0--0-0-----------0-0-0-0--0--0-0----------|
     . . . .     . .           . . . .     . .

(Then that slow effect starts)

C#]-----------------------------------------------------|
G#]--------------------12-12---------------------17-17--|
E ]--------------------15-15---------------------20-20--|
B ]-----------0-------------------------0---------------| x2
F#]--0-0-0-0--0--0-0-----------0-0-0-0--0--0-0----------|
B ]--0-0-0-0--0--0-0-----------0-0-0-0--0--0-0----------|
     . . . .     . .           . . . .     . .

"I don't want to kiss anyone."
"I don't want to kiss anyone but you."
"I fucking love you."

==========================================================================================

That's the tab for the entire EP of This Is What The Edge Of Your Seat Was Made For by Bring Me The Horizon.
Have fun!
Tap to rate this tab
 
# A B C D E F G H I J K L M N O P Q R S T U V W X Y Z