Guitaretab - guitar tabs
Song name
# A B C D E F G H I J K L M N O P Q R S T U V W X Y Z

Bring Me The Horizon - Liquor And Love Lost tab

-------------------------------------------------------------------------------
			     Liqour and love lost - Bring me the horizon
-------------------------------------------------------------------------------
Tabbed by: James Matthews
Email: jammie666@hotmail.co.uk

Tuning: drop B

PART A (INTRO)
|---------------------------------------------------------------------------|
|---------------------------------------------------------------------------|
|---------------------------------------------------------------------------|
|-0~--------0~--------------------------------------------------------------|
|-0~--------0~--------888888888-77777777-4444444----------------------------|
|-0~--------0~--------------------------------------------------------------|

PART B
|---------------------------------------------------------------------------|
|---------------------------------------------------------------------------|
|---------------------------------------------------------------------------|
|---------------------------------------------------------------------------|
|------10101010-8888-7777-8888-7777-5555-4444-5555-4444---------------------|
|-0000--------------------------------------------------8888-7777-8888-7777-|

|------------|
|------------|
|------------|   x2
|------------|
|------------|
|-5555-3333--|

PART C
|------------------------------------------------------------------|
|------------------------------------------------------------------|
|------------------------------------------------------------------|  x2
|------------------------------------------------------------------|
|----10---8---7---8---7---5---4---5---4----------------------------|
|-00----0---0---0---0---0---0---0---0---0-8-0-7-0-8-0-7-0-5-0-3*---|

PART D
|-------------------------------------------------------------------|
|-------------------------------------------------------------------|
|------10h13h10-----9h12h9-----7*-----------------------------------| x4
|-------------------------------------------------------------------|
|-0-0-----------0-0--------0-0---------7---8---10---8---7---5---4*--|
|-0-0-----------0-0--------0-0-----0-0---0---0----0---0---0---0-----|


NOW PLAY PART C AGAIN ONCE
THEN PART B AGAIN ONCE

PART E (PLAYED UNDER SOLO)
|---------------------------------------------------------------------------|
|---------------------------------------------------------------------------|
|---------------------------------------------------------------------------|
|0~--------8~--------5--------6--------7--------8----------5---------6------|
|0~--------8~--------5--------4--------5--------8----------5---------4------|
|0~--------8~--------5--------------------------8----------5----------------|
[ Tab from: http://www.guitaretab.com/b/bring-me-the-horizon/80702.html ]
|------------------------------------------------------------|
|------------------------------------------------------------|
|------------------------------------------------------------| X 2
|-7-777-777-777------------------------------6-666-666-666---|
|-5-555-555-555--8-888-888-888-5-555-555-555-4-444-444-444---|
|----------------8-888-888-888-5-555-555-555-----------------|

|-------------------------------------------------------------------|
|-------------------------------------------------------------------|
|-------------------------------------------------------------------|
|-------------------------------------------------------------------|
|------5555-7777-8888-------10101010-8888-7777-------5555-7777-8888-|
|-0000-----------------8888---------------------5555----------------|

|-------------------------------------|
|-------------------------------------|
|--------------------------------9*---| X2
|-------------------------------------|
|-------------12121212-10101010-------|
|-11-11-11-11-------------------------|

|------------------------------------------------------------------
|------------------------------------------------------------------|
|------------------------------------------------------------------| X3
|------------3-----------3---4-----------3------------3---4---5----|
|-0-4-3-1--5---0-4-3-1-5---6---0-4-3-1-5---0-4-3-1--5---6---7------|
|-0-4-3-1------0-4-3-1---------0-4-3-1-----0-4-3-1-----------------|

|--------------------------------------------------------------------|
|--------------------------------------------------------------------|
|--------------------------------------------------------------------|
|------------3-----------3---4-----------3------------3---4---5---6--|
|-0-4-3-1--5---0-4-3-1-5---6---0-4-3-1-5---0-4-3-1--5---6---7---8----|
|-0-4-3-1------0-4-3-1---------0-4-3-1-----0-4-3-1-------------------|

|------------------------------------------------------------------
|------------------------------------------------------------------|
|----------3*------------3*-4*----------3*----------3*-4*-5*-------| X3
|------------------------------------------------------------------|
|-0-4-3-1------0-4-3-1---------0-4-3-1-----0-4-3-1-----------------|
|-0-4-3-1------0-4-3-1---------0-4-3-1-----0-4-3-1-----------------|

|--------------------------------------------------------------------|
|--------------------------------------------------------------------|
|----------3*------------3*-4*---------3*-----------3*-4*-5*-6*------|
|--------------------------------------------------------------------|
|-0-4-3-1------0-4-3-1---------0-4-3-1-----0-4-3-1-------------------|
|-0-4-3-1------0-4-3-1---------0-4-3-1-----0-4-3-1-------------------|

===============================================================================

I HAVENT GOT THE SOLO, BIT TOO TRICKY FOR ME SORRY
NOT TOO SURE ABOUT THE PINCH HARMONICS ON THE LAST PART
EMAIL ME IF YOU KNOW THEM

THANKS XXX
Related for Liquor And Love Lost tab
Advertisement will be closed in 10 seconds