Song name
# A B C D E F G H I J K L M N O P Q R S T U V W X Y Z

Bring Me The Horizon - I Used To Make Out With Medusa tab

Tab: William Graff
Tuning: Dropped B tuning (low to high: B-F#-B-E-G#-C#)   
   
190 BPM

   4/4
C#||-------------------------------------|----------------------|
G#||-------------------------------------|----------------------|
E ||-----------------------------17--19--|--17b-----------------|
B ||--0----------------------------------|----------------------|
F#||-------------------------------------|----------------------|
B ||-------------------------------------|----------------------|
   |
   |(harmony)
C#||-------------------------------------|----------------------|
G#||-----------------------------15--17--|--16b-----------------|
E ||-------------------------------------|----------------------|
B ||--0----------------------------------|----------------------|
F#||-------------------------------------|----------------------|
B ||-------------------------------------|----------------------|



||----------------------------|----------------------------------|
||----------------------------|--15--------------17--------------|
||--17-15-14-----------15h-17-|--------17p-14----------17p-14----|
||----------------------------|----------------------------------|
||----------------------------|----------------------------------|
||----------------------------|----------------------------------|
|
|
| (Harmony)
||-----------------------------|--13----------------15----------------|
||--17-15-13~------------15-17-|--------17----13----------17----13----|
||-----------------------------|--------------------------------------|
||-----------------------------|--------------------------------------|
||-----------------------------|--------------------------------------|
||-----------------------------|--------------------------------------|


--------------------------------------------------|
--18--17--15--17--15--14--15--14------14----------|
----------------------------------15------15--14--|
--------------------------------------------------|
--------------------------------------------------|
--------------------------------------------------|



--------------------------------------------------|
--------------------------------------------------|
--15--14------14----------------------------------|
----------17------17--15--17--15--14--15--14--12--|
--------------------------------------------------|
--------------------------------------------------|



--------------------------------------------------|
--------------------------------------------------|
--------------------------------------------------|
--14--12--11--12--11------11----------------------|
----------------------13------13--12--13--12--10--|
--------------------------------------------------|


    
---------------------------------|
---------------------------------|
---------------------------------|
---------------------------------|
--12--10--8--10--8--7--5~--------|
---------------------------------|

Moves to 6/8 time at 130 BPM
   T          T          T          T          
--17p-13p-10-17p-13p-10-17p-13p-10-17p-13p-10-|
----------------------------------------------|
----------------------------------------------|
----------------------------------------------|
----------------------------------------------|
----------------------------------------------|


   T          T          T          T          
--18p-13p-10-18p-13p-10-17p-13p-10-17p-13p-10-|
----------------------------------------------|
----------------------------------------------|
----------------------------------------------|
----------------------------------------------|
----------------------------------------------|


   T         T         T         T         
--17p-12p-9-17p-12p-9-17p-12p-9-17p-12p-9-|
------------------------------------------|
------------------------------------------|
------------------------------------------|
------------------------------------------|
------------------------------------------|


   T         T         T         T         
--18p-12p-9-18p-12p-9-17p-12p-9-17p-12p-9-|
------------------------------------------|
------------------------------------------|
------------------------------------------|
------------------------------------------|
------------------------------------------|


   T          T          T          T          
--17p-13p-10-17p-13p-10-17p-13p-10-17p-13p-10-|
----------------------------------------------|
----------------------------------------------|
----------------------------------------------|
----------------------------------------------|
----------------------------------------------|


   T          T          T          T          
--18p-13p-10-18p-13p-10-17p-13p-10-17p-13p-10-|
----------------------------------------------|
----------------------------------------------|
----------------------------------------------|
----------------------------------------------|
----------------------------------------------|


   T         T         T         T         
--17p-12p-9-17p-12p-9-17p-12p-9-17p-12p-9-|
------------------------------------------|
------------------------------------------|
------------------------------------------|
------------------------------------------|
------------------------------------------|


   T         T         T         T                                   
--18p-12p-9-18p-12p-9-17p-12p-9-17p-12p-9-|--10~---------L-10-10-10-|
------------------------------------------|-------------------------|
------------------------------------------|-------------------------|
------------------------------------------|-------------------------|
------------------------------------------|-------------------------|
------------------------------------------|-------------------------|


 
--12--13--15--13--12--13h15p13---|-----------------|--17--15--13--15--13------|
---------------------------------|--14~------------|--------------------17----|
---------------------------------|-----------------|--------------------------|
---------------------------------|-----------------|--------------------------|
---------------------------------|-----------------|--------------------------|
---------------------------------|-----------------|--------------------------|



||--------13-17p-13----------13-18p-13----|
||*----15-----------15----15-----------15-|
||---14----------------14-----------------|
||----------------------------------------|
||*---------------------------------------|
||----------------------------------------|
  D-------|U--------|D-------|U----------


                                     x2
--------13-20-18-17-18-17----17--------||
-----15-------------------20----20-18-*||
--14-----------------------------------||
---------------------------------------||
--------------------------------------*||
---------------------------------------||
  |D-------|Alternate picking----------



4/4              
----------------------||
----------------------||
--18b~----------------||
----------------------||
----------------------||
----------------------||End.




*Tab legend*
-------------------
~= Vibrato
T= Tap (with pick hand)
h= Hammer on
p= Pull off
D= Down stroke (sweep picking)
U= Up stroke (sweep picking)
b= Bend
Tap to rate this tab
# A B C D E F G H I J K L M N O P Q R S T U V W X Y Z