Song name
# A B C D E F G H I J K L M N O P Q R S T U V W X Y Z

Bring Me The Horizon - Off The Heezay tab

Song: Off The Heezay (Intro)
Artist: Bring Me The Horizon
Album: Count Your Blessings

Much Thanks to Andy Ridgeway

Tuning: Guitar 1 - (B F# B E G# C#)

Part A - "1st Chord"    |----|
			|----|
			|----|
			|-11-|
			|-8--|
			|-8--|

               optional:|----sweep---|
                        |            |
|--------------------------10-13-10-----|
|--------------12-------12----------12--|
|--------10-13----10-13-----------------|
|-9-9-12--------------------------------|
|---------------------------------------|
|---------------------------------------|


Part b - "2nd Chord"    |----|
			|----|
			|----|
			|-13-|
			|-10-|
			|-10-|

                optional: |----sweep---|
                          |            |
|----------------------------12-15-12----|
|----------------14-------14----------14-|
|----------12-15----12-15----------------|
|-11-11-14-------------------------------|
|----------------------------------------|
|----------------------------------------|


Part C - "3rd Chord"    |----|
			|----|
			|----|
			|-9--|
			|-7--|
			|-7--|

|----------------------------------------|
|-------------------------14-17-14-------|
|----------12-15----12-15----------15----|
|-11-11-14-------14----------------------|
|----------------------------------------|
|----------------------------------------|

Then...

|----------------|
|----------------|
|----------------|
|----------------|
|---8-7-5-4------|
|---8-7-5-4------|
    * * * *


Enjoy ;)

Any corrections/queries email me at; mike19916@gmail.com
Tap to rate this tab
# A B C D E F G H I J K L M N O P Q R S T U V W X Y Z